  0
SECTION
  2
HEADER
  9
$ACADVER
  1
AC1018
  9
$ACADMAINTVER
 70
     0
  9
$DWGCODEPAGE
  3
ANSI_1252
  9
$TITLE
  1

  9
$SUBJECT
  1

  9
$AUTHOR
  1

  9
$KEYWORDS
  1

  9
$COMMENTS
  1

  9
$LASTSAVEDBY
  1
Studio Cisotti Laube
  9
$REVISIONNUMBER
  1

  9
$INSBASE
 10
0.0
 20
0.0
 30
0.0
  9
$EXTMIN
 10
-216.0474319856553
 20
-216.0474332580386
 30
0.0
  9
$EXTMAX
 10
1105.802204596286
 20
1114.117187203058
 30
0.0
  9
$LIMMIN
 10
0.0
 20
0.0
  9
$LIMMAX
 10
12.0
 20
9.0
  9
$ORTHOMODE
 70
     0
  9
$REGENMODE
 70
     1
  9
$FILLMODE
 70
     1
  9
$QTEXTMODE
 70
     0
  9
$MIRRTEXT
 70
     1
  9
$LTSCALE
 40
1.0
  9
$ATTMODE
 70
     1
  9
$TEXTSIZE
 40
0.2
  9
$TRACEWID
 40
0.05
  9
$TEXTSTYLE
  7
Standard
  9
$CLAYER
  8
BLOCCO_stool_8500-60--2D
  9
$CELTYPE
  6
ByLayer
  9
$CECOLOR
 62
   256
  9
$CELTSCALE
 40
1.0
  9
$DISPSILH
 70
     0
  9
$DIMSCALE
 40
1.0
  9
$DIMASZ
 40
0.18
  9
$DIMEXO
 40
0.0625
  9
$DIMDLI
 40
0.38
  9
$DIMRND
 40
0.0
  9
$DIMDLE
 40
0.0
  9
$DIMEXE
 40
0.18
  9
$DIMTP
 40
0.0
  9
$DIMTM
 40
0.0
  9
$DIMTXT
 40
0.18
  9
$DIMCEN
 40
0.09
  9
$DIMTSZ
 40
0.0
  9
$DIMTOL
 70
     0
  9
$DIMLIM
 70
     0
  9
$DIMTIH
 70
     1
  9
$DIMTOH
 70
     1
  9
$DIMSE1
 70
     0
  9
$DIMSE2
 70
     0
  9
$DIMTAD
 70
     0
  9
$DIMZIN
 70
     0
  9
$DIMBLK
  1

  9
$DIMASO
 70
     1
  9
$DIMSHO
 70
     1
  9
$DIMPOST
  1

  9
$DIMAPOST
  1

  9
$DIMALT
 70
     0
  9
$DIMALTD
 70
     2
  9
$DIMALTF
 40
25.4
  9
$DIMLFAC
 40
1.0
  9
$DIMTOFL
 70
     0
  9
$DIMTVP
 40
0.0
  9
$DIMTIX
 70
     0
  9
$DIMSOXD
 70
     0
  9
$DIMSAH
 70
     0
  9
$DIMBLK1
  1

  9
$DIMBLK2
  1

  9
$DIMSTYLE
  2
Standard
  9
$DIMCLRD
 70
     0
  9
$DIMCLRE
 70
     0
  9
$DIMCLRT
 70
     0
  9
$DIMTFAC
 40
1.0
  9
$DIMGAP
 40
0.09
  9
$DIMJUST
 70
     0
  9
$DIMSD1
 70
     0
  9
$DIMSD2
 70
     0
  9
$DIMTOLJ
 70
     1
  9
$DIMTZIN
 70
     0
  9
$DIMALTZ
 70
     0
  9
$DIMALTTZ
 70
     0
  9
$DIMUPT
 70
     0
  9
$DIMDEC
 70
     4
  9
$DIMTDEC
 70
     4
  9
$DIMALTU
 70
     2
  9
$DIMALTTD
 70
     2
  9
$DIMTXSTY
  7
Standard
  9
$DIMAUNIT
 70
     0
  9
$DIMADEC
 70
     0
  9
$DIMALTRND
 40
0.0
  9
$DIMAZIN
 70
     0
  9
$DIMDSEP
 70
    46
  9
$DIMATFIT
 70
     3
  9
$DIMFRAC
 70
     0
  9
$DIMLDRBLK
  1

  9
$DIMLUNIT
 70
     2
  9
$DIMLWD
 70
    -2
  9
$DIMLWE
 70
    -2
  9
$DIMTMOVE
 70
     2
  9
$LUNITS
 70
     2
  9
$LUPREC
 70
     3
  9
$SKETCHINC
 40
0.1
  9
$FILLETRAD
 40
0.5
  9
$AUNITS
 70
     0
  9
$AUPREC
 70
     0
  9
$MENU
  1
.
  9
$ELEVATION
 40
0.0
  9
$PELEVATION
 40
0.0
  9
$THICKNESS
 40
0.0
  9
$LIMCHECK
 70
     0
  9
$CHAMFERA
 40
0.5
  9
$CHAMFERB
 40
0.5
  9
$CHAMFERC
 40
1.0
  9
$CHAMFERD
 40
0.0
  9
$SKPOLY
 70
     0
  9
$TDCREATE
 40
2456371.689630903
  9
$TDUCREATE
 40
2456371.647964236
  9
$TDUPDATE
 40
2456372.710222083
  9
$TDUUPDATE
 40
2456372.668555417
  9
$TDINDWG
 40
0.0002821412
  9
$TDUSRTIMER
 40
0.0002821412
  9
$USRTIMER
 70
     1
  9
$ANGBASE
 50
0.0
  9
$ANGDIR
 70
     0
  9
$PDMODE
 70
     0
  9
$PDSIZE
 40
0.0
  9
$PLINEWID
 40
0.0
  9
$SPLFRAME
 70
     0
  9
$SPLINETYPE
 70
     6
  9
$SPLINESEGS
 70
     8
  9
$HANDSEED
  5
12F
  9
$SURFTAB1
 70
     6
  9
$SURFTAB2
 70
     6
  9
$SURFTYPE
 70
     6
  9
$SURFU
 70
     6
  9
$SURFV
 70
     6
  9
$UCSBASE
  2

  9
$UCSNAME
  2

  9
$UCSORG
 10
0.0
 20
0.0
 30
0.0
  9
$UCSXDIR
 10
1.0
 20
0.0
 30
0.0
  9
$UCSYDIR
 10
0.0
 20
1.0
 30
0.0
  9
$UCSORTHOREF
  2

  9
$UCSORTHOVIEW
 70
     0
  9
$UCSORGTOP
 10
0.0
 20
0.0
 30
0.0
  9
$UCSORGBOTTOM
 10
0.0
 20
0.0
 30
0.0
  9
$UCSORGLEFT
 10
0.0
 20
0.0
 30
0.0
  9
$UCSORGRIGHT
 10
0.0
 20
0.0
 30
0.0
  9
$UCSORGFRONT
 10
0.0
 20
0.0
 30
0.0
  9
$UCSORGBACK
 10
0.0
 20
0.0
 30
0.0
  9
$PUCSBASE
  2

  9
$PUCSNAME
  2

  9
$PUCSORG
 10
0.0
 20
0.0
 30
0.0
  9
$PUCSXDIR
 10
1.0
 20
0.0
 30
0.0
  9
$PUCSYDIR
 10
0.0
 20
1.0
 30
0.0
  9
$PUCSORTHOREF
  2

  9
$PUCSORTHOVIEW
 70
     0
  9
$PUCSORGTOP
 10
0.0
 20
0.0
 30
0.0
  9
$PUCSORGBOTTOM
 10
0.0
 20
0.0
 30
0.0
  9
$PUCSORGLEFT
 10
0.0
 20
0.0
 30
0.0
  9
$PUCSORGRIGHT
 10
0.0
 20
0.0
 30
0.0
  9
$PUCSORGFRONT
 10
0.0
 20
0.0
 30
0.0
  9
$PUCSORGBACK
 10
0.0
 20
0.0
 30
0.0
  9
$USERI1
 70
     0
  9
$USERI2
 70
     0
  9
$USERI3
 70
     0
  9
$USERI4
 70
     0
  9
$USERI5
 70
     0
  9
$USERR1
 40
0.0
  9
$USERR2
 40
0.0
  9
$USERR3
 40
0.0
  9
$USERR4
 40
0.0
  9
$USERR5
 40
0.0
  9
$WORLDVIEW
 70
     1
  9
$SHADEDGE
 70
     3
  9
$SHADEDIF
 70
    70
  9
$TILEMODE
 70
     1
  9
$MAXACTVP
 70
    64
  9
$PINSBASE
 10
0.0
 20
0.0
 30
0.0
  9
$PLIMCHECK
 70
     0
  9
$PEXTMIN
 10
1.000000000000000E+20
 20
1.000000000000000E+20
 30
1.000000000000000E+20
  9
$PEXTMAX
 10
-1.000000000000000E+20
 20
-1.000000000000000E+20
 30
-1.000000000000000E+20
  9
$PLIMMIN
 10
0.0
 20
0.0
  9
$PLIMMAX
 10
12.0
 20
9.0
  9
$UNITMODE
 70
     0
  9
$VISRETAIN
 70
     1
  9
$PLINEGEN
 70
     0
  9
$PSLTSCALE
 70
     1
  9
$TREEDEPTH
 70
  3020
  9
$CMLSTYLE
  2
Standard
  9
$CMLJUST
 70
     0
  9
$CMLSCALE
 40
1.0
  9
$PROXYGRAPHICS
 70
     1
  9
$MEASUREMENT
 70
     0
  9
$CELWEIGHT
370
    -1
  9
$ENDCAPS
280
     0
  9
$JOINSTYLE
280
     0
  9
$LWDISPLAY
290
     0
  9
$INSUNITS
 70
     4
  9
$HYPERLINKBASE
  1

  9
$STYLESHEET
  1

  9
$XEDIT
290
     1
  9
$CEPSNTYPE
380
     0
  9
$PSTYLEMODE
290
     1
  9
$FINGERPRINTGUID
  2
{55A3D5E4-109B-4DC7-9755-CF5EABFB4491}
  9
$VERSIONGUID
  2
{FAEB1C32-E019-11D5-929B-00C0DF256EC4}
  9
$EXTNAMES
290
     1
  9
$PSVPSCALE
 40
0.0
  9
$OLESTARTUP
290
     0
  9
$SORTENTS
280
   127
  9
$INDEXCTL
280
     0
  9
$HIDETEXT
280
     1
  9
$XCLIPFRAME
290
     0
  9
$HALOGAP
280
     0
  9
$OBSCOLOR
 70
   257
  9
$OBSLTYPE
280
     0
  9
$INTERSECTIONDISPLAY
280
     0
  9
$INTERSECTIONCOLOR
 70
   257
  9
$DIMASSOC
280
     2
  9
$PROJECTNAME
  1

  0
ENDSEC
  0
SECTION
  2
CLASSES
  0
CLASS
  1
ACDBDICTIONARYWDFLT
  2
AcDbDictionaryWithDefault
  3
ObjectDBX Classes
 90
        0
 91
        1
280
     0
281
     0
  0
CLASS
  1
VISUALSTYLE
  2
AcDbVisualStyle
  3
ObjectDBX Classes
 90
     4095
 91
       16
280
     0
281
     0
  0
CLASS
  1
MATERIAL
  2
AcDbMaterial
  3
ObjectDBX Classes
 90
        0
 91
        3
280
     0
281
     0
  0
CLASS
  1
TABLESTYLE
  2
AcDbTableStyle
  3
ObjectDBX Classes
 90
     4095
 91
        1
280
     0
281
     0
  0
CLASS
  1
DICTIONARYVAR
  2
AcDbDictionaryVar
  3
ObjectDBX Classes
 90
        0
 91
        5
280
     0
281
     0
  0
CLASS
  1
ACDBPLACEHOLDER
  2
AcDbPlaceHolder
  3
ObjectDBX Classes
 90
        0
 91
        1
280
     0
281
     0
  0
CLASS
  1
LAYOUT
  2
AcDbLayout
  3
ObjectDBX Classes
 90
        0
 91
        3
280
     0
281
     0
  0
ENDSEC
  0
SECTION
  2
TABLES
  0
TABLE
  2
VPORT
  5
8
102
{ACAD_XDICTIONARY
360
111
102
}
330
0
100
AcDbSymbolTable
 70
     2
  0
VPORT
  5
12E
330
8
100
AcDbSymbolTableRecord
100
AcDbViewportTableRecord
  2
*Active
 70
     0
 10
0.0
 20
0.0
 11
1.0
 21
1.0
 12
1102.216052461688
 22
452.5224572705525
 13
0.0
 23
0.0
 14
0.5
 24
0.5
 15
0.5
 25
0.5
 16
0.0
 26
0.0
 36
1.0
 17
0.0
 27
0.0
 37
0.0
 40
1363.832478905364
 41
1.95268817204301
 42
50.0
 43
0.0
 44
0.0
 50
0.0
 51
0.0
 71
     0
 72
   100
 73
     1
 74
     3
 75
     0
 76
     0
 77
     0
 78
     0
281
     0
 65
     1
110
0.0
120
0.0
130
0.0
111
1.0
121
0.0
131
0.0
112
0.0
122
1.0
132
0.0
 79
     0
146
0.0
  0
ENDTAB
  0
TABLE
  2
LTYPE
  5
5
330
0
100
AcDbSymbolTable
 70
     1
  0
LTYPE
  5
14
330
5
100
AcDbSymbolTableRecord
100
AcDbLinetypeTableRecord
  2
ByBlock
 70
     0
  3

 72
    65
 73
     0
 40
0.0
  0
LTYPE
  5
15
330
5
100
AcDbSymbolTableRecord
100
AcDbLinetypeTableRecord
  2
ByLayer
 70
     0
  3

 72
    65
 73
     0
 40
0.0
  0
LTYPE
  5
16
330
5
100
AcDbSymbolTableRecord
100
AcDbLinetypeTableRecord
  2
Continuous
 70
     0
  3
Solid line
 72
    65
 73
     0
 40
0.0
  0
ENDTAB
  0
TABLE
  2
LAYER
  5
2
330
0
100
AcDbSymbolTable
 70
     2
  0
LAYER
  5
10
102
{ACAD_XDICTIONARY
360
113
102
}
330
2
100
AcDbSymbolTableRecord
100
AcDbLayerTableRecord
  2
0
 70
     0
 62
     7
  6
Continuous
370
    -3
390
F
  0
LAYER
  5
3B
102
{ACAD_XDICTIONARY
360
11B
102
}
330
2
100
AcDbSymbolTableRecord
100
AcDbLayerTableRecord
  2
BLOCCO_stool_8500-60--2D
 70
     0
 62
     7
  6
Continuous
370
    -3
390
F
  0
ENDTAB
  0
TABLE
  2
STYLE
  5
3
330
0
100
AcDbSymbolTable
 70
     1
  0
STYLE
  5
11
330
3
100
AcDbSymbolTableRecord
100
AcDbTextStyleTableRecord
  2
Standard
 70
     0
 40
0.0
 41
1.0
 50
0.0
 71
     0
 42
0.2
  3
txt
  4

  0
ENDTAB
  0
TABLE
  2
VIEW
  5
6
330
0
100
AcDbSymbolTable
 70
     0
  0
ENDTAB
  0
TABLE
  2
UCS
  5
7
330
0
100
AcDbSymbolTable
 70
     0
  0
ENDTAB
  0
TABLE
  2
APPID
  5
9
330
0
100
AcDbSymbolTable
 70
     1
  0
APPID
  5
12
330
9
100
AcDbSymbolTableRecord
100
AcDbRegAppTableRecord
  2
ACAD
 70
     0
  0
ENDTAB
  0
TABLE
  2
DIMSTYLE
  5
A
330
0
100
AcDbSymbolTable
 70
     1
100
AcDbDimStyleTable
 71
     0
  0
DIMSTYLE
105
27
330
A
100
AcDbSymbolTableRecord
100
AcDbDimStyleTableRecord
  2
Standard
 70
     0
340
11
  0
ENDTAB
  0
TABLE
  2
BLOCK_RECORD
  5
1
330
0
100
AcDbSymbolTable
 70
     1
  0
BLOCK_RECORD
  5
1F
330
1
100
AcDbSymbolTableRecord
100
AcDbBlockTableRecord
  2
*Model_Space
340
22
  0
BLOCK_RECORD
  5
1B
330
1
100
AcDbSymbolTableRecord
100
AcDbBlockTableRecord
  2
*Paper_Space
340
1E
  0
BLOCK_RECORD
  5
23
330
1
100
AcDbSymbolTableRecord
100
AcDbBlockTableRecord
  2
*Paper_Space0
340
26
  0
ENDTAB
  0
ENDSEC
  0
SECTION
  2
BLOCKS
  0
BLOCK
  5
20
330
1F
100
AcDbEntity
  8
0
100
AcDbBlockBegin
  2
*Model_Space
 70
     0
 10
0.0
 20
0.0
 30
0.0
  3
*Model_Space
  1

  0
ENDBLK
  5
21
330
1F
100
AcDbEntity
  8
0
100
AcDbBlockEnd
  0
BLOCK
  5
1C
330
1B
100
AcDbEntity
 67
     1
  8
0
100
AcDbBlockBegin
  2
*Paper_Space
 70
     0
 10
0.0
 20
0.0
 30
0.0
  3
*Paper_Space
  1

  0
ENDBLK
  5
1D
330
1B
100
AcDbEntity
 67
     1
  8
0
100
AcDbBlockEnd
  0
BLOCK
  5
24
330
23
100
AcDbEntity
  8
0
100
AcDbBlockBegin
  2
*Paper_Space0
 70
     0
 10
0.0
 20
0.0
 30
0.0
  3
*Paper_Space0
  1

  0
ENDBLK
  5
25
330
23
100
AcDbEntity
  8
0
100
AcDbBlockEnd
  0
ENDSEC
  0
SECTION
  2
ENTITIES
  0
SPLINE
  5
3C
330
1F
100
AcDbEntity
  8
BLOCCO_stool_8500-60--2D
100
AcDbSpline
210
0.0
220
0.0
230
1.0
 70
    15
 71
     2
 72
    12
 73
     9
 74
     0
 42
0.0000000001
 43
0.0000000001
 40
0.0
 40
0.0
 40
0.0
 40
259.2141843203509
 40
259.2141843203509
 40
518.4283686407018
 40
518.4283686407018
 40
777.6425529610527
 40
777.6425529610527
 40
1036.856737281403
 40
1036.856737281403
 40
1036.856737281403
 10
116.6873688123551
 20
116.6873688123559
 30
0.0
 41
1.0
 10
233.374757183087
 20
-0.0000023398796092
 30
0.0
 41
0.7071067811865476
 10
116.6873860308515
 20
-116.6873907106109
 30
0.0
 41
1.0
 10
0.0000148786157413
 20
-233.3747790813422
 30
0.0
 41
0.7071067811865476
 10
-116.6873734921155
 20
-116.6874079291066
 30
0.0
 41
1.0
 10
-233.3747618628469
 20
-0.0000367768711083
 30
0.0
 41
0.7071067811865476
 10
-116.687390710611
 20
116.68735159386
 30
0.0
 41
1.0
 10
-0.0000195583756774
 20
233.3747399645913
 30
0.0
 41
0.7071067811865476
 10
116.6873688123551
 20
116.6873688123559
 30
0.0
 41
1.0
  0
SPLINE
  5
3D
330
1F
100
AcDbEntity
  8
BLOCCO_stool_8500-60--2D
100
AcDbSpline
210
0.0
220
0.0
230
1.0
 70
    12
 71
     2
 72
     6
 73
     3
 74
     0
 42
0.0000000001
 43
0.0000000001
 40
0.0
 40
0.0
 40
0.0
 40
265.3082019058341
 40
265.3082019058341
 40
265.3082019058341
 10
143.1325987981845
 20
121.9193953621599
 30
0.0
 41
1.0
 10
246.9827374491725
 20
0.0000005712657443
 30
0.0
 41
0.7612651665081288
 10
143.132591086247
 20
-121.9193876506507
 30
0.0
 41
1.0
  0
SPLINE
  5
3E
330
1F
100
AcDbEntity
  8
BLOCCO_stool_8500-60--2D
100
AcDbSpline
210
0.0
220
0.0
230
1.0
 70
    12
 71
     2
 72
     6
 73
     3
 74
     0
 42
0.0000000001
 43
0.0000000001
 40
0.0
 40
0.0
 40
0.0
 40
265.3082079716092
 40
265.3082079716092
 40
265.3082079716092
 10
121.919402193359
 20
-143.132605628904
 30
0.0
 41
1.0
 10
0.0000005319445641
 20
-246.9827200324923
 30
0.0
 41
0.7612652607010013
 10
-121.9193950146427
 20
-143.1325984501348
 30
0.0
 41
1.0
  0
SPLINE
  5
3F
330
1F
100
AcDbEntity
  8
BLOCCO_stool_8500-60--2D
100
AcDbSpline
210
0.0
220
0.0
230
1.0
 70
    12
 71
     2
 72
     6
 73
     3
 74
     0
 42
0.0000000001
 43
0.0000000001
 40
0.0
 40
0.0
 40
0.0
 40
265.3082018346355
 40
265.3082018346355
 40
265.3082018346355
 10
-143.1325986026031
 20
-121.9193951668103
 30
0.0
 41
1.0
 10
-246.9827375904523
 20
-0.0000005529812041
 30
0.0
 41
0.7612651656655088
 10
-143.1325911390581
 20
121.919387703449
 30
0.0
 41
1.0
  0
SPLINE
  5
40
330
1F
100
AcDbEntity
  8
BLOCCO_stool_8500-60--2D
100
AcDbSpline
210
0.0
220
0.0
230
1.0
 70
    12
 71
     2
 72
     6
 73
     3
 74
     0
 42
0.0000000001
 43
0.0000000001
 40
0.0
 40
0.0
 40
0.0
 40
265.3082079347354
 40
265.3082079347354
 40
265.3082079347354
 10
-121.9194022792044
 20
143.1326057147862
 30
0.0
 41
1.0
 10
-0.0000005489255162
 20
246.98272006749
 30
0.0
 41
0.7612652604235836
 10
121.9193948695183
 20
143.1325983047317
 30
0.0
 41
1.0
  0
SPLINE
  5
41
330
1F
100
AcDbEntity
  8
BLOCCO_stool_8500-60--2D
100
AcDbSpline
210
0.0
220
0.0
230
1.0
 70
    15
 71
     2
 72
    12
 73
     9
 74
     0
 42
0.0000000001
 43
0.0000000001
 40
0.0
 40
0.0
 40
0.0
 40
267.9557791859394
 40
267.9557791859394
 40
535.9115583718788
 40
535.9115583718788
 40
803.8673375578182
 40
803.8673375578182
 40
1071.823116743757
 40
1071.823116743757
 40
1071.823116743757
 10
120.6224703141834
 20
120.6224703144073
 30
0.0
 41
1.0
 10
241.2449590387035
 20
-0.0000009707638889
 30
0.0
 41
0.7071067811865476
 10
120.6224877535323
 20
-120.622489695284
 30
0.0
 41
1.0
 10
0.0000164683614769
 20
-241.2449784198042
 30
0.0
 41
0.7071067811865476
 10
-120.6224722561587
 20
-120.622507134633
 30
0.0
 41
1.0
 10
-241.2449609806792
 20
-0.0000358494618977
 30
0.0
 41
0.7071067811865476
 10
-120.6224896955077
 20
120.6224528750582
 30
0.0
 41
1.0
 10
-0.0000184103364515
 20
241.2449415995785
 30
0.0
 41
0.7071067811865476
 10
120.6224703141834
 20
120.6224703144073
 30
0.0
 41
1.0
  0
LINE
  5
42
330
1F
100
AcDbEntity
  8
BLOCCO_stool_8500-60--2D
100
AcDbLine
 10
216.0474319856557
 20
216.0474332580386
 30
0.0
 11
-216.0474319856553
 21
-216.0474332580386
 31
0.0
  0
POINT
  5
43
330
1F
100
AcDbEntity
  8
BLOCCO_stool_8500-60--2D
100
AcDbPoint
 10
-0.0000023398806661
 20
-0.0000195583756408
 30
0.0
  0
SPLINE
  5
44
330
1F
100
AcDbEntity
  8
BLOCCO_stool_8500-60--2D
100
AcDbSpline
210
0.0
220
0.0
230
1.0
 70
    24
 71
     2
 72
     6
 73
     3
 74
     0
 42
0.0000000001
 43
0.0000000001
 40
0.0
 40
0.0
 40
0.0
 40
51.54586697141851
 40
51.54586697141851
 40
51.54586697141851
 10
109.5486221179626
 20
130.7618255535592
 30
0.0
 10
127.7728381632699
 20
148.9860415858814
 30
0.0
 10
145.9970542085773
 20
167.2102576182036
 30
0.0
  0
SPLINE
  5
45
330
1F
100
AcDbEntity
  8
BLOCCO_stool_8500-60--2D
100
AcDbSpline
210
0.0
220
0.0
230
1.0
 70
     8
 71
     5
 72
    12
 73
     6
 74
     0
 42
0.0000000001
 43
0.0000000001
 40
-1.0
 40
-1.0
 40
-1.0
 40
-1.0
 40
-1.0
 40
-1.0
 40
0.0
 40
0.0
 40
0.0
 40
0.0
 40
0.0
 40
0.0
 10
145.9970542085773
 20
167.2102576182036
 30
0.0
 10
146.1096102746389
 20
167.3228136582945
 30
0.0
 10
146.2221663277152
 20
167.4353697113706
 30
0.0
 10
146.3583674359053
 20
167.5262525525496
 30
0.0
 10
146.4913197074376
 20
167.6144165028411
 30
0.0
 10
146.6295114977012
 20
167.6934149792309
 30
0.0
  0
SPLINE
  5
46
330
1F
100
AcDbEntity
  8
BLOCCO_stool_8500-60--2D
100
AcDbSpline
210
0.0
220
0.0
230
1.0
 70
    12
 71
     2
 72
     6
 73
     3
 74
     0
 42
0.0000000001
 43
0.0000000001
 40
0.0
 40
0.0
 40
0.0
 40
3.695216059736189
 40
3.695216059736189
 40
3.695216059736189
 10
146.6295114977012
 20
167.6934149792309
 30
0.0
 41
1.0
 10
148.4726738044841
 20
168.7470739100344
 30
0.0
 41
0.8162715057217621
 10
150.0793837437515
 20
167.3592917676459
 30
0.0
 41
1.0
  0
SPLINE
  5
47
330
1F
100
AcDbEntity
  8
BLOCCO_stool_8500-60--2D
100
AcDbSpline
210
0.0
220
0.0
230
1.0
 70
    12
 71
     2
 72
     6
 73
     3
 74
     0
 42
0.0000000001
 43
0.0000000001
 40
0.0
 40
0.0
 40
0.0
 40
24.45917094162981
 40
24.45917094162981
 40
24.45917094162981
 10
150.0793837437515
 20
167.3592917676459
 30
0.0
 41
1.0
 10
159.3508704825809
 20
159.3508714638918
 30
0.0
 41
0.9973392809828759
 10
167.3592905160541
 20
150.0793881138306
 30
0.0
 41
1.0
  0
SPLINE
  5
48
330
1F
100
AcDbEntity
  8
BLOCCO_stool_8500-60--2D
100
AcDbSpline
210
0.0
220
0.0
230
1.0
 70
    12
 71
     2
 72
     6
 73
     3
 74
     0
 42
0.0000000001
 43
0.0000000001
 40
0.0
 40
0.0
 40
0.0
 40
3.764253743239954
 40
3.764253743239954
 40
3.764253743239954
 10
167.3592905160541
 20
150.0793881138306
 30
0.0
 41
1.0
 10
168.7812197786369
 20
148.4331539945908
 30
0.0
 41
0.8095706321443316
 10
167.6584715804339
 20
146.5699830273033
 30
0.0
 41
1.0
  0
SPLINE
  5
49
330
1F
100
AcDbEntity
  8
BLOCCO_stool_8500-60--2D
100
AcDbSpline
210
0.0
220
0.0
230
1.0
 70
     8
 71
     5
 72
    12
 73
     6
 74
     0
 42
0.0000000001
 43
0.0000000001
 40
0.0
 40
0.0
 40
0.0
 40
0.0
 40
0.0
 40
0.0
 40
1.0
 40
1.0
 40
1.0
 40
1.0
 40
1.0
 40
1.0
 10
167.6584715804339
 20
146.5699830273033
 30
0.0
 10
167.5833826711015
 20
146.4453749664248
 30
0.0
 10
167.500740238571
 20
146.3253186641931
 30
0.0
 10
167.4160053374791
 20
146.2028018499415
 30
0.0
 10
167.3131328116507
 20
146.0999293241132
 30
0.0
 10
167.2102602728371
 20
145.9970568112702
 30
0.0
  0
SPLINE
  5
4A
330
1F
100
AcDbEntity
  8
BLOCCO_stool_8500-60--2D
100
AcDbSpline
210
0.0
220
0.0
230
1.0
 70
    24
 71
     2
 72
     6
 73
     3
 74
     0
 42
0.0000000001
 43
0.0000000001
 40
-51.54595498364542
 40
-51.54595498364542
 40
-51.54595498364542
 40
0.0
 40
0.0
 40
0.0
 10
167.2102602728371
 20
145.9970568112702
 30
0.0
 10
148.9860131105082
 20
127.7728096619267
 30
0.0
 10
130.7617659481793
 20
109.5485625125832
 30
0.0
  0
SPLINE
  5
4B
330
1F
100
AcDbEntity
  8
BLOCCO_stool_8500-60--2D
100
AcDbSpline
210
0.0
220
0.0
230
1.0
 70
    24
 71
     2
 72
     6
 73
     3
 74
     0
 42
0.0000000001
 43
0.0000000001
 40
0.0
 40
0.0
 40
0.0
 40
51.54585148701278
 40
51.54585148701278
 40
51.54585148701278
 10
-130.7618474518158
 20
109.5486221179628
 30
0.0
 10
-148.9860552722917
 20
127.772835425988
 30
0.0
 10
-167.2102630927676
 20
145.9970487340132
 30
0.0
  0
SPLINE
  5
4C
330
1F
100
AcDbEntity
  8
BLOCCO_stool_8500-60--2D
100
AcDbSpline
210
0.0
220
0.0
230
1.0
 70
     8
 71
     5
 72
    12
 73
     6
 74
     0
 42
0.0000000001
 43
0.0000000001
 40
-1.0
 40
-1.0
 40
-1.0
 40
-1.0
 40
-1.0
 40
-1.0
 40
0.0
 40
0.0
 40
0.0
 40
0.0
 40
0.0
 40
0.0
 10
-167.2102630927676
 20
145.9970487340132
 30
0.0
 10
-167.3228136582945
 20
146.1096102746389
 30
0.0
 10
-167.4353697113706
 20
146.2221663277152
 30
0.0
 10
-167.5262525525496
 20
146.3583674359053
 30
0.0
 10
-167.6144165028411
 20
146.4913197074376
 30
0.0
 10
-167.6934149792309
 20
146.6295114977012
 30
0.0
  0
SPLINE
  5
4D
330
1F
100
AcDbEntity
  8
BLOCCO_stool_8500-60--2D
100
AcDbSpline
210
0.0
220
0.0
230
1.0
 70
    12
 71
     2
 72
     6
 73
     3
 74
     0
 42
0.0000000001
 43
0.0000000001
 40
0.0
 40
0.0
 40
0.0
 40
3.695216059736189
 40
3.695216059736189
 40
3.695216059736189
 10
-167.6934149792309
 20
146.6295114977012
 30
0.0
 41
1.0
 10
-168.7470739100344
 20
148.4726738044841
 30
0.0
 41
0.8162715057217621
 10
-167.3592917676459
 20
150.0793837437515
 30
0.0
 41
1.0
  0
SPLINE
  5
4E
330
1F
100
AcDbEntity
  8
BLOCCO_stool_8500-60--2D
100
AcDbSpline
210
0.0
220
0.0
230
1.0
 70
    12
 71
     2
 72
     6
 73
     3
 74
     0
 42
0.0000000001
 43
0.0000000001
 40
0.0
 40
0.0
 40
0.0
 40
24.45917094162981
 40
24.45917094162981
 40
24.45917094162981
 10
-167.3592917676459
 20
150.0793837437515
 30
0.0
 41
1.0
 10
-159.3508714638918
 20
159.3508704825809
 30
0.0
 41
0.9973392809828759
 10
-150.0793881138306
 20
167.3592905160541
 30
0.0
 41
1.0
  0
SPLINE
  5
4F
330
1F
100
AcDbEntity
  8
BLOCCO_stool_8500-60--2D
100
AcDbSpline
210
0.0
220
0.0
230
1.0
 70
    12
 71
     2
 72
     6
 73
     3
 74
     0
 42
0.0000000001
 43
0.0000000001
 40
0.0
 40
0.0
 40
0.0
 40
3.764253743239954
 40
3.764253743239954
 40
3.764253743239954
 10
-150.0793881138306
 20
167.3592905160541
 30
0.0
 41
1.0
 10
-148.4331539945908
 20
168.7812197786369
 30
0.0
 41
0.8095706321443316
 10
-146.5699830273033
 20
167.6584715804339
 30
0.0
 41
1.0
  0
SPLINE
  5
50
330
1F
100
AcDbEntity
  8
BLOCCO_stool_8500-60--2D
100
AcDbSpline
210
0.0
220
0.0
230
1.0
 70
     8
 71
     5
 72
    12
 73
     6
 74
     0
 42
0.0000000001
 43
0.0000000001
 40
0.0
 40
0.0
 40
0.0
 40
0.0
 40
0.0
 40
0.0
 40
1.0
 40
1.0
 40
1.0
 40
1.0
 40
1.0
 40
1.0
 10
-146.5699830273033
 20
167.6584715804339
 30
0.0
 10
-146.4453749664248
 20
167.5833826711015
 30
0.0
 10
-146.3253186641931
 20
167.500740238571
 30
0.0
 10
-146.2028018499415
 20
167.4160053374791
 30
0.0
 10
-146.0999293241132
 20
167.3131328116507
 30
0.0
 10
-145.9970622858337
 20
167.2102547982722
 30
0.0
  0
SPLINE
  5
51
330
1F
100
AcDbEntity
  8
BLOCCO_stool_8500-60--2D
100
AcDbSpline
210
0.0
220
0.0
230
1.0
 70
    24
 71
     2
 72
     6
 73
     3
 74
     0
 42
0.0000000001
 43
0.0000000001
 40
-51.54593949923746
 40
-51.54593949923746
 40
-51.54593949923746
 40
0.0
 40
0.0
 40
0.0
 10
-145.9970622858337
 20
167.2102547982722
 30
0.0
 10
-127.7728233483367
 20
148.9860103732259
 30
0.0
 10
-109.5485844108398
 20
130.7617659481795
 30
0.0
  0
SPLINE
  5
52
330
1F
100
AcDbEntity
  8
BLOCCO_stool_8500-60--2D
100
AcDbSpline
210
0.0
220
0.0
230
1.0
 70
    24
 71
     2
 72
     6
 73
     3
 74
     0
 42
0.0000000001
 43
0.0000000001
 40
0.0
 40
0.0
 40
0.0
 40
51.54583600260692
 40
51.54583600260692
 40
51.54583600260692
 10
-109.5486440162194
 20
-130.7618474518158
 30
0.0
 10
-127.7728491123984
 20
-148.9860525350097
 30
0.0
 10
-145.9970542085774
 20
-167.2102576182036
 30
0.0
  0
SPLINE
  5
53
330
1F
100
AcDbEntity
  8
BLOCCO_stool_8500-60--2D
100
AcDbSpline
210
0.0
220
0.0
230
1.0
 70
     8
 71
     5
 72
    12
 73
     6
 74
     0
 42
0.0000000001
 43
0.0000000001
 40
-1.0
 40
-1.0
 40
-1.0
 40
-1.0
 40
-1.0
 40
-1.0
 40
0.0
 40
0.0
 40
0.0
 40
0.0
 40
0.0
 40
0.0
 10
-145.9970542085774
 20
-167.2102576182036
 30
0.0
 10
-146.1096102746389
 20
-167.3228136582945
 30
0.0
 10
-146.2221663277152
 20
-167.4353697113706
 30
0.0
 10
-146.3583674359053
 20
-167.5262525525496
 30
0.0
 10
-146.4913197074376
 20
-167.6144165028411
 30
0.0
 10
-146.6295114977012
 20
-167.6934149792309
 30
0.0
  0
SPLINE
  5
54
330
1F
100
AcDbEntity
  8
BLOCCO_stool_8500-60--2D
100
AcDbSpline
210
0.0
220
0.0
230
1.0
 70
    12
 71
     2
 72
     6
 73
     3
 74
     0
 42
0.0000000001
 43
0.0000000001
 40
0.0
 40
0.0
 40
0.0
 40
3.695216059736189
 40
3.695216059736189
 40
3.695216059736189
 10
-146.6295114977012
 20
-167.6934149792309
 30
0.0
 41
1.0
 10
-148.4726738044841
 20
-168.7470739100344
 30
0.0
 41
0.8162715057217621
 10
-150.0793837437515
 20
-167.3592917676459
 30
0.0
 41
1.0
  0
SPLINE
  5
55
330
1F
100
AcDbEntity
  8
BLOCCO_stool_8500-60--2D
100
AcDbSpline
210
0.0
220
0.0
230
1.0
 70
    12
 71
     2
 72
     6
 73
     3
 74
     0
 42
0.0000000001
 43
0.0000000001
 40
0.0
 40
0.0
 40
0.0
 40
24.45917094162981
 40
24.45917094162981
 40
24.45917094162981
 10
-150.0793837437515
 20
-167.3592917676459
 30
0.0
 41
1.0
 10
-159.3508704825809
 20
-159.3508714638918
 30
0.0
 41
0.9973392809828759
 10
-167.3592905160541
 20
-150.0793881138306
 30
0.0
 41
1.0
  0
SPLINE
  5
56
330
1F
100
AcDbEntity
  8
BLOCCO_stool_8500-60--2D
100
AcDbSpline
210
0.0
220
0.0
230
1.0
 70
    12
 71
     2
 72
     6
 73
     3
 74
     0
 42
0.0000000001
 43
0.0000000001
 40
0.0
 40
0.0
 40
0.0
 40
3.764253743239954
 40
3.764253743239954
 40
3.764253743239954
 10
-167.3592905160541
 20
-150.0793881138306
 30
0.0
 41
1.0
 10
-168.7812197786369
 20
-148.4331539945908
 30
0.0
 41
0.8095706321443316
 10
-167.6584715804339
 20
-146.5699830273033
 30
0.0
 41
1.0
  0
SPLINE
  5
57
330
1F
100
AcDbEntity
  8
BLOCCO_stool_8500-60--2D
100
AcDbSpline
210
0.0
220
0.0
230
1.0
 70
     8
 71
     5
 72
    12
 73
     6
 74
     0
 42
0.0000000001
 43
0.0000000001
 40
0.0
 40
0.0
 40
0.0
 40
0.0
 40
0.0
 40
0.0
 40
1.0
 40
1.0
 40
1.0
 40
1.0
 40
1.0
 40
1.0
 10
-167.6584715804339
 20
-146.5699830273033
 30
0.0
 10
-167.5833826711015
 20
-146.4453749664248
 30
0.0
 10
-167.500740238571
 20
-146.3253186641931
 30
0.0
 10
-167.4160053374791
 20
-146.2028018499415
 30
0.0
 10
-167.3131328116507
 20
-146.0999293241132
 30
0.0
 10
-167.2102602728371
 20
-145.9970568112701
 30
0.0
  0
SPLINE
  5
58
330
1F
100
AcDbEntity
  8
BLOCCO_stool_8500-60--2D
100
AcDbSpline
210
0.0
220
0.0
230
1.0
 70
    24
 71
     2
 72
     6
 73
     3
 74
     0
 42
0.0000000001
 43
0.0000000001
 40
-51.54592401483379
 40
-51.54592401483379
 40
-51.54592401483379
 40
0.0
 40
0.0
 40
0.0
 10
-167.2102602728371
 20
-145.9970568112701
 30
0.0
 10
-148.9860240596366
 20
-127.772820611055
 30
0.0
 10
-130.7617878464361
 20
-109.5485844108398
 30
0.0
  0
SPLINE
  5
59
330
1F
100
AcDbEntity
  8
BLOCCO_stool_8500-60--2D
100
AcDbSpline
210
0.0
220
0.0
230
1.0
 70
    24
 71
     2
 72
     6
 73
     3
 74
     0
 42
0.0000000001
 43
0.0000000001
 40
0.0
 40
0.0
 40
0.0
 40
51.54585148701497
 40
51.54585148701497
 40
51.54585148701497
 10
130.761825553559
 20
-109.5486440162192
 30
0.0
 10
148.9860388485995
 20
-127.7728518496807
 30
0.0
 10
167.21025214364
 20
-145.9970596831422
 30
0.0
  0
SPLINE
  5
5A
330
1F
100
AcDbEntity
  8
BLOCCO_stool_8500-60--2D
100
AcDbSpline
210
0.0
220
0.0
230
1.0
 70
     8
 71
     5
 72
    12
 73
     6
 74
     0
 42
0.0000000001
 43
0.0000000001
 40
-1.0
 40
-1.0
 40
-1.0
 40
-1.0
 40
-1.0
 40
-1.0
 40
0.0
 40
0.0
 40
0.0
 40
0.0
 40
0.0
 40
0.0
 10
167.21025214364
 20
-145.9970596831422
 30
0.0
 10
167.3228136582945
 20
-146.1096102746389
 30
0.0
 10
167.4353697113706
 20
-146.2221663277152
 30
0.0
 10
167.5262525525496
 20
-146.3583674359053
 30
0.0
 10
167.6144165028411
 20
-146.4913197074376
 30
0.0
 10
167.6934149792309
 20
-146.6295114977012
 30
0.0
  0
SPLINE
  5
5B
330
1F
100
AcDbEntity
  8
BLOCCO_stool_8500-60--2D
100
AcDbSpline
210
0.0
220
0.0
230
1.0
 70
    12
 71
     2
 72
     6
 73
     3
 74
     0
 42
0.0000000001
 43
0.0000000001
 40
0.0
 40
0.0
 40
0.0
 40
3.695216059736189
 40
3.695216059736189
 40
3.695216059736189
 10
167.6934149792309
 20
-146.6295114977012
 30
0.0
 41
1.0
 10
168.7470739100344
 20
-148.4726738044841
 30
0.0
 41
0.8162715057217621
 10
167.3592917676459
 20
-150.0793837437515
 30
0.0
 41
1.0
  0
SPLINE
  5
5C
330
1F
100
AcDbEntity
  8
BLOCCO_stool_8500-60--2D
100
AcDbSpline
210
0.0
220
0.0
230
1.0
 70
    12
 71
     2
 72
     6
 73
     3
 74
     0
 42
0.0000000001
 43
0.0000000001
 40
0.0
 40
0.0
 40
0.0
 40
24.45917094162981
 40
24.45917094162981
 40
24.45917094162981
 10
167.3592917676459
 20
-150.0793837437515
 30
0.0
 41
1.0
 10
159.3508714638918
 20
-159.3508704825809
 30
0.0
 41
0.9973392809828759
 10
150.0793881138306
 20
-167.3592905160541
 30
0.0
 41
1.0
  0
SPLINE
  5
5D
330
1F
100
AcDbEntity
  8
BLOCCO_stool_8500-60--2D
100
AcDbSpline
210
0.0
220
0.0
230
1.0
 70
    12
 71
     2
 72
     6
 73
     3
 74
     0
 42
0.0000000001
 43
0.0000000001
 40
0.0
 40
0.0
 40
0.0
 40
3.764253743239954
 40
3.764253743239954
 40
3.764253743239954
 10
150.0793881138306
 20
-167.3592905160541
 30
0.0
 41
1.0
 10
148.4331539945908
 20
-168.7812197786369
 30
0.0
 41
0.8095706321443316
 10
146.5699830273033
 20
-167.6584715804339
 30
0.0
 41
1.0
  0
SPLINE
  5
5E
330
1F
100
AcDbEntity
  8
BLOCCO_stool_8500-60--2D
100
AcDbSpline
210
0.0
220
0.0
230
1.0
 70
     8
 71
     5
 72
    12
 73
     6
 74
     0
 42
0.0000000001
 43
0.0000000001
 40
0.0
 40
0.0
 40
0.0
 40
0.0
 40
0.0
 40
0.0
 40
1.0
 40
1.0
 40
1.0
 40
1.0
 40
1.0
 40
1.0
 10
146.5699830273033
 20
-167.6584715804339
 30
0.0
 10
146.4453749664248
 20
-167.5833826711015
 30
0.0
 10
146.3253186641931
 20
-167.500740238571
 30
0.0
 10
146.2028018499415
 20
-167.4160053374791
 30
0.0
 10
146.0999293241132
 20
-167.3131328116507
 30
0.0
 10
145.9970513367061
 20
-167.2102657474012
 30
0.0
  0
SPLINE
  5
5F
330
1F
100
AcDbEntity
  8
BLOCCO_stool_8500-60--2D
100
AcDbSpline
210
0.0
220
0.0
230
1.0
 70
    24
 71
     2
 72
     6
 73
     3
 74
     0
 42
0.0000000001
 43
0.0000000001
 40
-51.54593949923977
 40
-51.54593949923977
 40
-51.54593949923977
 40
0.0
 40
0.0
 40
0.0
 10
145.9970513367061
 20
-167.2102657474012
 30
0.0
 10
127.7728069246445
 20
-148.9860267969186
 30
0.0
 10
109.548562512583
 20
-130.7617878464359
 30
0.0
  0
SPLINE
  5
60
330
1F
100
AcDbEntity
  8
BLOCCO_stool_8500-60--2D
100
AcDbSpline
210
0.0
220
0.0
230
1.0
 70
    12
 71
     2
 72
     6
 73
     3
 74
     0
 42
0.0000000001
 43
0.0000000001
 40
0.0
 40
0.0
 40
0.0
 40
4.831273863226374
 40
4.831273863226374
 40
4.831273863226374
 10
702.9000122106467
 20
664.3859172245636
 30
0.0
 41
1.0
 10
700.4362648266213
 20
664.386060574815
 30
0.0
 41
0.9709647215909477
 10
698.2544391019987
 20
663.2416446975151
 30
0.0
 41
1.0
  0
SPLINE
  5
61
330
1F
100
AcDbEntity
  8
BLOCCO_stool_8500-60--2D
100
AcDbSpline
210
0.0
220
0.0
230
1.0
 70
    12
 71
     2
 72
     6
 73
     3
 74
     0
 42
0.0000000001
 43
0.0000000001
 40
0.0
 40
0.0
 40
0.0
 40
4.830889763626028
 40
4.830889763626028
 40
4.830889763626028
 10
698.2541147971374
 20
645.5303656449161
 30
0.0
 41
1.0
 10
700.4357187366914
 20
644.3859661748847
 30
0.0
 41
0.9709695032822168
 10
702.8992620982303
 20
644.3859225346293
 30
0.0
 41
1.0
  0
SPLINE
  5
62
330
1F
100
AcDbEntity
  8
BLOCCO_stool_8500-60--2D
100
AcDbSpline
210
0.0
220
0.0
230
1.0
 70
    24
 71
     2
 72
     6
 73
     3
 74
     0
 42
0.0000000001
 43
0.0000000001
 40
0.0
 40
0.0
 40
0.0
 40
163.0193596120306
 40
163.0193596120306
 40
163.0193596120306
 10
1058.938170903916
 20
644.3859198865416
 30
0.0
 10
977.4284910979012
 20
644.3859198865418
 30
0.0
 10
895.9188112918859
 20
644.385919886542
 30
0.0
  0
SPLINE
  5
63
330
1F
100
AcDbEntity
  8
BLOCCO_stool_8500-60--2D
100
AcDbSpline
210
0.0
220
0.0
230
1.0
 70
    24
 71
     3
 72
     8
 73
     4
 74
     0
 42
0.0000000001
 43
0.0000000001
 40
0.0
 40
0.0
 40
0.0
 40
0.0
 40
163.0193597510974
 40
163.0193597510974
 40
163.0193597510974
 40
163.0193597510974
 10
865.9188112919851
 20
644.385919886542
 30
0.0
 10
811.5790247082854
 20
644.3859198865418
 30
0.0
 10
757.2392381245868
 20
644.3859198865427
 30
0.0
 10
702.8994515408871
 20
644.385919886542
 30
0.0
  0
SPLINE
  5
64
330
1F
100
AcDbEntity
  8
BLOCCO_stool_8500-60--2D
100
AcDbSpline
210
0.0
220
0.0
230
1.0
 70
    24
 71
     2
 72
     6
 73
     3
 74
     0
 42
0.0000000001
 43
0.0000000001
 40
0.0
 40
0.0
 40
0.0
 40
163.0187990813444
 40
163.0187990813444
 40
163.0187990813444
 10
702.9000122106459
 20
664.385919886542
 30
0.0
 10
784.4094117513182
 20
664.385919886542
 30
0.0
 10
865.9188112919904
 20
664.385919886542
 30
0.0
  0
SPLINE
  5
65
330
1F
100
AcDbEntity
  8
BLOCCO_stool_8500-60--2D
100
AcDbSpline
210
0.0
220
0.0
230
1.0
 70
    24
 71
     2
 72
     6
 73
     3
 74
     0
 42
0.0000000001
 43
0.0000000001
 40
0.0
 40
0.0
 40
0.0
 40
163.0193597000384
 40
163.0193597000384
 40
163.0193597000384
 10
895.918811291885
 20
664.385919886542
 30
0.0
 10
977.4284911419044
 20
664.385919886542
 30
0.0
 10
1058.938170991924
 20
664.385919886542
 30
0.0
  0
POLYLINE
  5
66
330
1F
100
AcDbEntity
  8
BLOCCO_stool_8500-60--2D
100
AcDb2dPolyline
 66
     1
 10
0.0
 20
0.0
 30
0.0
  0
VERTEX
  5
67
330
66
100
AcDbEntity
  8
BLOCCO_stool_8500-60--2D
100
AcDbVertex
100
AcDb2dVertex
 10
713.3326848113243
 20
1084.385919890822
 30
0.0
  0
VERTEX
  5
68
330
66
100
AcDbEntity
  8
BLOCCO_stool_8500-60--2D
100
AcDbVertex
100
AcDb2dVertex
 10
1048.504907723055
 20
1084.385919890861
 30
0.0
  0
SEQEND
  5
69
330
66
100
AcDbEntity
  8
BLOCCO_stool_8500-60--2D
  0
SPLINE
  5
6A
330
1F
100
AcDbEntity
  8
BLOCCO_stool_8500-60--2D
100
AcDbSpline
210
0.0
220
0.0
230
1.0
 70
    12
 71
     2
 72
     8
 73
     5
 74
     0
 42
0.0000000001
 43
0.0000000001
 40
-5.000205535632879
 40
-5.000205535632879
 40
-5.000205535632879
 40
-2.500102767816439
 40
-2.500102767816439
 40
0.0
 40
0.0
 40
0.0
 10
1048.504907723055
 20
1084.385919890861
 30
0.0
 41
1.0
 10
1049.832710270614
 20
1084.385992166473
 30
0.0
 41
0.9144361867909365
 10
1050.725454049235
 20
1085.36887982855
 30
0.0
 41
1.0
 10
1051.618197827855
 20
1086.351767490628
 30
0.0
 41
0.9144361867909365
 10
1051.490933688331
 20
1087.673457144031
 30
0.0
 41
1.0
  0
SPLINE
  5
6B
330
1F
100
AcDbEntity
  8
BLOCCO_stool_8500-60--2D
100
AcDbSpline
210
0.0
220
0.0
230
1.0
 70
    24
 71
     2
 72
     6
 73
     3
 74
     0
 42
0.0000000001
 43
0.0000000001
 40
-23.84102683809853
 40
-23.84102683809853
 40
-23.84102683809853
 40
0.0
 40
0.0
 40
0.0
 10
1051.490933688331
 20
1087.673457144031
 30
0.0
 10
1050.348403105258
 20
1099.539090900689
 30
0.0
 10
1049.205872522184
 20
1111.404724657347
 30
0.0
  0
SPLINE
  5
6C
330
1F
100
AcDbEntity
  8
BLOCCO_stool_8500-60--2D
100
AcDbSpline
210
0.0
220
0.0
230
1.0
 70
    12
 71
     2
 72
     6
 73
     3
 74
     0
 42
0.0000000001
 43
0.0000000001
 40
-4.424325614483158
 40
-4.424325614483158
 40
-4.424325614483158
 40
0.0
 40
0.0
 40
0.0
 10
1049.205872522184
 20
1111.404724657347
 30
0.0
 41
1.0
 10
1048.944701040843
 20
1114.117112309366
 30
0.0
 41
0.7402271357494793
 10
1046.219724149509
 20
1114.117187043041
 30
0.0
 41
1.0
  0
SPLINE
  5
6D
330
1F
100
AcDbEntity
  8
BLOCCO_stool_8500-60--2D
100
AcDbSpline
210
0.0
220
0.0
230
1.0
 70
     8
 71
     3
 72
     8
 73
     4
 74
     0
 42
0.0000000001
 43
0.0000000001
 40
-330.6018152105945
 40
-330.6018152105945
 40
-330.6018152105945
 40
-330.6018152105945
 40
0.0
 40
0.0
 40
0.0
 40
0.0
 10
1046.219724149509
 20
1114.117187043041
 30
0.0
 10
936.0190747218762
 20
1114.117187374142
 30
0.0
 10
825.8184696521116
 20
1114.117187373071
 30
0.0
 10
715.6178645823469
 20
1114.117187203058
 30
0.0
  0
SPLINE
  5
6E
330
1F
100
AcDbEntity
  8
BLOCCO_stool_8500-60--2D
100
AcDbSpline
210
0.0
220
0.0
230
1.0
 70
    12
 71
     2
 72
     6
 73
     3
 74
     0
 42
0.0000000001
 43
0.0000000001
 40
-4.424289711342781
 40
-4.424289711342781
 40
-4.424289711342781
 40
0.0
 40
0.0
 40
0.0
 10
715.6178645823474
 20
1114.117187203058
 30
0.0
 41
0.9999999998327028
 10
712.8929661147842
 20
1114.117147735365
 30
0.0
 41
0.7402316515616719
 10
712.6317382910506
 20
1111.404762763964
 30
0.0
 41
1.0
  0
SPLINE
  5
6F
330
1F
100
AcDbEntity
  8
BLOCCO_stool_8500-60--2D
100
AcDbSpline
210
0.0
220
0.0
230
1.0
 70
    24
 71
     2
 72
     6
 73
     3
 74
     0
 42
0.0000000001
 43
0.0000000001
 40
-23.84095226092146
 40
-23.84095226092146
 40
-23.84095226092146
 40
0.0
 40
0.0
 40
0.0
 10
712.6317382910506
 20
1111.404762763964
 30
0.0
 10
711.4892075553466
 20
1099.539128513349
 30
0.0
 10
710.3466768196426
 20
1087.673494262733
 30
0.0
  0
SPLINE
  5
70
330
1F
100
AcDbEntity
  8
BLOCCO_stool_8500-60--2D
100
AcDbSpline
210
0.0
220
0.0
230
1.0
 70
    12
 71
     2
 72
     8
 73
     5
 74
     0
 42
0.0000000001
 43
0.0000000001
 40
-5.000207279244325
 40
-5.000207279244325
 40
-5.000207279244325
 40
-2.500103639622162
 40
-2.500103639622162
 40
0.0
 40
0.0
 40
0.0
 10
710.3466768196426
 20
1087.673494262733
 30
0.0
 41
1.0
 10
710.2193929540831
 20
1086.351766963662
 30
0.0
 41
0.9144360761573993
 10
711.1121373225691
 20
1085.368879063743
 30
0.0
 41
1.0
 10
712.0048816910565
 20
1084.385991163824
 30
0.0
 41
0.9144360761573993
 10
713.3326848113243
 20
1084.385919890822
 30
0.0
 41
1.0
  0
SPLINE
  5
71
330
1F
100
AcDbEntity
  8
BLOCCO_stool_8500-60--2D
100
AcDbSpline
210
0.0
220
0.0
230
1.0
 70
    12
 71
     2
 72
    12
 73
     9
 74
     0
 42
0.0000000001
 43
0.0000000001
 40
0.0
 40
0.0
 40
0.0
 40
7.854072362598937
 40
7.854072362598937
 40
15.70814472519787
 40
15.70814472519787
 40
23.56221708779681
 40
23.56221708779681
 40
31.41628945039575
 40
31.41628945039575
 40
31.41628945039575
 10
-178.0188020869545
 20
664.3853912241195
 30
0.0
 41
1.0
 10
-182.160990973241
 20
664.3856234643764
 30
0.0
 41
0.9238777567156979
 10
-185.0900978608488
 20
661.4567906482911
 30
0.0
 41
1.0
 10
-188.0192047484565
 20
658.5279578322054
 30
0.0
 41
0.9238777567156979
 10
-188.0193601038636
 20
654.3857689423223
 30
0.0
 41
1.0
 10
-188.0195154592707
 20
650.2435800524385
 30
0.0
 41
0.9238777567156979
 10
-185.0906282753476
 20
647.3145275285908
 30
0.0
 41
1.0
 10
-182.1617410914249
 20
644.3854750047425
 30
0.0
 41
0.9238777567156979
 10
-178.019552199371
 20
644.3853965341856
 30
0.0
 41
1.0
  0
SPLINE
  5
72
330
1F
100
AcDbEntity
  8
BLOCCO_stool_8500-60--2D
100
AcDbSpline
210
0.0
220
0.0
230
1.0
 70
    12
 71
     2
 72
    12
 73
     9
 74
     0
 42
0.0000000001
 43
0.0000000001
 40
0.0
 40
0.0
 40
0.0
 40
7.854076524665919
 40
7.854076524665919
 40
15.70815304933184
 40
15.70815304933184
 40
23.56222957399776
 40
23.56222957399776
 40
31.41630609866368
 40
31.41630609866368
 40
31.41630609866368
 10
178.0195421653852
 20
644.3853912415238
 30
0.0
 41
1.0
 10
182.1617332528252
 20
644.3854680458656
 30
0.0
 41
0.9238777566151343
 10
185.09062316577
 20
647.3145209454583
 30
0.0
 41
1.0
 10
188.0195130787154
 20
650.2435738450513
 30
0.0
 41
0.9238777566151343
 10
188.019359385129
 20
654.3857649303518
 30
0.0
 41
1.0
 10
188.0192056915429
 20
658.5279560156525
 30
0.0
 41
0.9238777566151343
 10
185.0900984250611
 20
661.456791557674
 30
0.0
 41
1.0
 10
182.1609911585795
 20
664.3856270996957
 30
0.0
 41
0.9238777566151343
 10
178.0188000768457
 20
664.3853965168648
 30
0.0
 41
1.0
  0
SPLINE
  5
73
330
1F
100
AcDbEntity
  8
BLOCCO_stool_8500-60--2D
100
AcDbSpline
210
0.0
220
0.0
230
1.0
 70
    24
 71
     2
 72
     6
 73
     3
 74
     0
 42
0.0000000001
 43
0.0000000001
 40
0.0
 40
0.0
 40
0.0
 40
20.50874912265181
 40
20.50874912265181
 40
20.50874912265181
 10
-178.0193987552729
 20
644.3853938860982
 30
0.0
 10
-167.765024193947
 20
644.3853938860982
 30
0.0
 10
-157.5106496326211
 20
644.3853938860982
 30
0.0
  0
SPLINE
  5
74
330
1F
100
AcDbEntity
  8
BLOCCO_stool_8500-60--2D
100
AcDbSpline
210
0.0
220
0.0
230
1.0
 70
    24
 71
     2
 72
     6
 73
     3
 74
     0
 42
0.0000000001
 43
0.0000000001
 40
0.0
 40
0.0
 40
0.0
 40
235.5737107373358
 40
235.5737107373358
 40
235.5737107373358
 10
-117.7868583735953
 20
644.3853938860979
 30
0.0
 10
-0.0000030049277484
 20
644.385393886098
 30
0.0
 10
117.7868523637398
 20
644.3853938860982
 30
0.0
  0
SPLINE
  5
75
330
1F
100
AcDbEntity
  8
BLOCCO_stool_8500-60--2D
100
AcDbSpline
210
0.0
220
0.0
230
1.0
 70
    24
 71
     2
 72
     6
 73
     3
 74
     0
 42
0.0000000001
 43
0.0000000001
 40
0.0
 40
0.0
 40
0.0
 40
20.5087114555588
 40
20.5087114555588
 40
20.5087114555588
 10
157.5106409921918
 20
644.3853938860982
 30
0.0
 10
167.7649967199713
 20
644.3853938860982
 30
0.0
 10
178.0193524477508
 20
644.3853938860982
 30
0.0
  0
SPLINE
  5
76
330
1F
100
AcDbEntity
  8
BLOCCO_stool_8500-60--2D
100
AcDbSpline
210
0.0
220
0.0
230
1.0
 70
    24
 71
     2
 72
     6
 73
     3
 74
     0
 42
0.0000000001
 43
0.0000000001
 40
0.0
 40
0.0
 40
0.0
 40
21.86988523404762
 40
21.86988523404762
 40
21.86988523404762
 10
-178.018802086955
 20
664.3853938860981
 30
0.0
 10
-167.0838594699312
 20
664.3853938860981
 30
0.0
 10
-156.1489168529074
 20
664.3853938860981
 30
0.0
  0
SPLINE
  5
77
330
1F
100
AcDbEntity
  8
BLOCCO_stool_8500-60--2D
100
AcDbSpline
210
0.0
220
0.0
230
1.0
 70
    24
 71
     2
 72
     6
 73
     3
 74
     0
 42
0.0000000001
 43
0.0000000001
 40
0.0
 40
0.0
 40
0.0
 40
233.4248539585875
 40
233.4248539585875
 40
233.4248539585875
 10
-116.7124180977353
 20
664.3853938860981
 30
0.0
 10
0.0000088815586423
 20
664.3853938860981
 30
0.0
 10
116.7124358608525
 20
664.3853938860981
 30
0.0
  0
SPLINE
  5
78
330
1F
100
AcDbEntity
  8
BLOCCO_stool_8500-60--2D
100
AcDbSpline
210
0.0
220
0.0
230
1.0
 70
    24
 71
     2
 72
     6
 73
     3
 74
     0
 42
0.0000000001
 43
0.0000000001
 40
0.0
 40
0.0
 40
0.0
 40
21.8698918630007
 40
21.8698918630007
 40
21.8698918630007
 10
156.1489082138441
 20
664.3853938860981
 30
0.0
 10
167.0838541453445
 20
664.3853938860981
 30
0.0
 10
178.0188000768448
 20
664.3853938860981
 30
0.0
  0
POLYLINE
  5
79
330
1F
100
AcDbEntity
  8
BLOCCO_stool_8500-60--2D
100
AcDb2dPolyline
 66
     1
 10
0.0
 20
0.0
 30
0.0
  0
VERTEX
  5
7A
330
79
100
AcDbEntity
  8
BLOCCO_stool_8500-60--2D
100
AcDbVertex
100
AcDb2dVertex
 10
167.5854919357916
 20
1084.385393886027
 30
0.0
  0
VERTEX
  5
7B
330
79
100
AcDbEntity
  8
BLOCCO_stool_8500-60--2D
100
AcDbVertex
100
AcDb2dVertex
 10
-167.5854819410642
 20
1084.385393886027
 30
0.0
  0
SEQEND
  5
7C
330
79
100
AcDbEntity
  8
BLOCCO_stool_8500-60--2D
  0
SPLINE
  5
7D
330
1F
100
AcDbEntity
  8
BLOCCO_stool_8500-60--2D
100
AcDbSpline
210
0.0
220
0.0
230
1.0
 70
    12
 71
     2
 72
     8
 73
     5
 74
     0
 42
0.0000000001
 43
0.0000000001
 40
0.0
 40
0.0
 40
0.0
 40
2.500183638729067
 40
2.500183638729067
 40
5.000367277458134
 40
5.000367277458134
 40
5.000367277458134
 10
-167.5854819410642
 20
1084.385393886027
 30
0.0
 41
1.0
 10
-168.9138005874408
 20
1084.385394310019
 30
0.0
 41
0.9144306721758827
 10
-169.8066033219538
 20
1085.368293828355
 30
0.0
 41
1.0
 10
-170.6994060564674
 20
1086.351193346692
 30
0.0
 41
0.9144306721758827
 10
-170.57212677189
 20
1087.672975918043
 30
0.0
 41
1.0
  0
SPLINE
  5
7E
330
1F
100
AcDbEntity
  8
BLOCCO_stool_8500-60--2D
100
AcDbSpline
210
0.0
220
0.0
230
1.0
 70
    24
 71
     2
 72
     6
 73
     3
 74
     0
 42
0.0000000001
 43
0.0000000001
 40
0.0
 40
0.0
 40
0.0
 40
23.84093687859647
 40
23.84093687859647
 40
23.84093687859647
 10
-170.57212677189
 20
1087.672975918043
 30
0.0
 10
-169.4295961526386
 20
1099.538609651744
 30
0.0
 10
-168.2870655333872
 20
1111.404243385446
 30
0.0
  0
SPLINE
  5
7F
330
1F
100
AcDbEntity
  8
BLOCCO_stool_8500-60--2D
100
AcDbSpline
210
0.0
220
0.0
230
1.0
 70
    12
 71
     2
 72
     6
 73
     3
 74
     0
 42
0.0000000001
 43
0.0000000001
 40
0.0
 40
0.0
 40
0.0
 40
4.424319622360262
 40
4.424319622360262
 40
4.424319622360262
 10
-168.2870655333872
 20
1111.404243385446
 30
0.0
 41
1.0
 10
-168.0258125624106
 20
1114.116660796924
 30
0.0
 41
0.7402283711408665
 10
-165.3008599311128
 20
1114.116632520884
 30
0.0
 41
1.0
  0
SPLINE
  5
80
330
1F
100
AcDbEntity
  8
BLOCCO_stool_8500-60--2D
100
AcDbSpline
210
0.0
220
0.0
230
1.0
 70
    12
 71
     2
 72
     6
 73
     3
 74
     0
 42
0.0000000001
 43
0.0000000001
 40
0.0
 40
0.0
 40
0.0
 40
330.6017287066225
 40
330.6017287066225
 40
330.6017287066225
 10
-165.3008599311128
 20
1114.116632520884
 30
0.0
 41
1.0
 10
0.0000314795706799
 20
1114.116603668038
 30
0.0
 41
1.0
 10
165.3008958330438
 20
1114.116632306142
 30
0.0
 41
1.0
  0
SPLINE
  5
81
330
1F
100
AcDbEntity
  8
BLOCCO_stool_8500-60--2D
100
AcDbSpline
210
0.0
220
0.0
230
1.0
 70
    12
 71
     2
 72
     6
 73
     3
 74
     0
 42
0.0000000001
 43
0.0000000001
 40
-4.424320205303989
 40
-4.424320205303989
 40
-4.424320205303989
 40
0.0
 40
0.0
 40
0.0
 10
165.3008958330438
 20
1114.116632306142
 30
0.0
 41
1.0
 10
168.025822553292
 20
1114.116661878246
 30
0.0
 41
0.7402280737691529
 10
168.2870671297523
 20
1111.404243312487
 30
0.0
 41
1.0
  0
SPLINE
  5
82
330
1F
100
AcDbEntity
  8
BLOCCO_stool_8500-60--2D
100
AcDbSpline
210
0.0
220
0.0
230
1.0
 70
    24
 71
     2
 72
     6
 73
     3
 74
     0
 42
0.0000000001
 43
0.0000000001
 40
0.0
 40
0.0
 40
0.0
 40
23.84093850446701
 40
23.84093850446701
 40
23.84093850446701
 10
168.2870671297523
 20
1111.404243312487
 30
0.0
 10
169.4295978360669
 20
1099.538609210668
 30
0.0
 10
170.5721285423815
 20
1087.67297510885
 30
0.0
  0
SPLINE
  5
83
330
1F
100
AcDbEntity
  8
BLOCCO_stool_8500-60--2D
100
AcDbSpline
210
0.0
220
0.0
230
1.0
 70
    12
 71
     2
 72
     8
 73
     5
 74
     0
 42
0.0000000001
 43
0.0000000001
 40
0.0
 40
0.0
 40
0.0
 40
2.500183334797605
 40
2.500183334797605
 40
5.00036666959521
 40
5.00036666959521
 40
5.00036666959521
 10
170.5721285423815
 20
1087.67297510885
 30
0.0
 41
1.0
 10
170.6994148215821
 20
1086.351193538554
 30
0.0
 41
0.9144307630758971
 10
169.8066122459959
 20
1085.368294215631
 30
0.0
 41
1.0
 10
168.9138096704089
 20
1084.385394892707
 30
0.0
 41
0.9144307630758971
 10
167.5854919357916
 20
1084.385393886027
 30
0.0
 41
1.0
  0
SPLINE
  5
84
330
1F
100
AcDbEntity
  8
BLOCCO_stool_8500-60--2D
100
AcDbSpline
210
0.0
220
0.0
230
1.0
 70
    24
 71
     2
 72
     6
 73
     3
 74
     0
 42
0.0000000001
 43
0.0000000001
 40
0.0
 40
0.0
 40
0.0
 40
1.0
 40
1.0
 40
1.0
 10
868.9188112918868
 20
486.1171439303929
 30
0.0
 10
868.9188112918868
 20
485.6171439303929
 30
0.0
 10
868.9188112918868
 20
485.117143930393
 30
0.0
  0
SPLINE
  5
85
330
1F
100
AcDbEntity
  8
BLOCCO_stool_8500-60--2D
100
AcDbSpline
210
0.0
220
0.0
230
1.0
 70
    12
 71
     2
 72
     8
 73
     5
 74
     0
 42
0.0000000001
 43
0.0000000001
 40
-0.7853981633974293
 40
-0.7853981633974293
 40
-0.7853981633974293
 40
-0.3926990816987183
 40
-0.3926990816987183
 40
0.0
 40
0.0
 40
0.0
 10
868.9188112918868
 20
485.117143930393
 30
0.0
 41
1.0
 10
868.9188112918868
 20
484.9182315630133
 30
0.0
 41
0.9807852804030662
 10
868.9949317593759
 20
484.7344604980279
 30
0.0
 41
1.0
 10
869.0710522268645
 20
484.5506894330425
 30
0.0
 41
0.9807852804032526
 10
869.2117045107002
 20
484.4100371492064
 30
0.0
 41
1.0
  0
SPLINE
  5
86
330
1F
100
AcDbEntity
  8
BLOCCO_stool_8500-60--2D
100
AcDbSpline
210
0.0
220
0.0
230
1.0
 70
    12
 71
     2
 72
     8
 73
     5
 74
     0
 42
0.0000000001
 43
0.0000000001
 40
-0.7853981633975482
 40
-0.7853981633975482
 40
-0.7853981633975482
 40
-0.3926990816987055
 40
-0.3926990816987055
 40
0.0
 40
0.0
 40
0.0
 10
869.2117045107002
 20
484.4100371492064
 30
0.0
 41
1.0
 10
869.3523567945359
 20
484.2693848653702
 30
0.0
 41
0.9807852804031865
 10
869.5361278595223
 20
484.1932643978817
 30
0.0
 41
1.0
 10
869.719898924507
 20
484.1171439303931
 30
0.0
 41
0.9807852804032206
 10
869.9188112918868
 20
484.117143930393
 30
0.0
 41
1.0
  0
POLYLINE
  5
87
330
1F
100
AcDbEntity
  8
BLOCCO_stool_8500-60--2D
100
AcDb2dPolyline
 66
     1
 10
0.0
 20
0.0
 30
0.0
  0
VERTEX
  5
88
330
87
100
AcDbEntity
  8
BLOCCO_stool_8500-60--2D
100
AcDbVertex
100
AcDb2dVertex
 10
869.9188112918868
 20
484.117143930393
 30
0.0
  0
VERTEX
  5
89
330
87
100
AcDbEntity
  8
BLOCCO_stool_8500-60--2D
100
AcDbVertex
100
AcDb2dVertex
 10
891.9188112918705
 20
484.117143930393
 30
0.0
  0
SEQEND
  5
8A
330
87
100
AcDbEntity
  8
BLOCCO_stool_8500-60--2D
  0
SPLINE
  5
8B
330
1F
100
AcDbEntity
  8
BLOCCO_stool_8500-60--2D
100
AcDbSpline
210
0.0
220
0.0
230
1.0
 70
    12
 71
     2
 72
     8
 73
     5
 74
     0
 42
0.0000000001
 43
0.0000000001
 40
0.0
 40
0.0
 40
0.0
 40
0.3926990816988194
 40
0.3926990816988194
 40
0.7853981633975562
 40
0.7853981633975562
 40
0.7853981633975562
 10
891.9188112918705
 20
484.117143930393
 30
0.0
 41
1.0
 10
892.1177236592505
 20
484.1171439303931
 30
0.0
 41
0.9807852804032254
 10
892.3014947242359
 20
484.1932643978817
 30
0.0
 41
1.0
 10
892.4852657892214
 20
484.2693848653706
 30
0.0
 41
0.98078528040324
 10
892.6259180730571
 20
484.4100371492064
 30
0.0
 41
1.0
  0
SPLINE
  5
8C
330
1F
100
AcDbEntity
  8
BLOCCO_stool_8500-60--2D
100
AcDbSpline
210
0.0
220
0.0
230
1.0
 70
    12
 71
     2
 72
     8
 73
     5
 74
     0
 42
0.0000000001
 43
0.0000000001
 40
0.0
 40
0.0
 40
0.0
 40
0.3926990816986895
 40
0.3926990816986895
 40
0.785398163397399
 40
0.785398163397399
 40
0.785398163397399
 10
892.6259180730571
 20
484.4100371492064
 30
0.0
 41
1.0
 10
892.7665703568932
 20
484.5506894330424
 30
0.0
 41
0.9807852804033005
 10
892.8426908243823
 20
484.7344604980279
 30
0.0
 41
1.0
 10
892.91881129187
 20
484.9182315630134
 30
0.0
 41
0.980785280403294
 10
892.9188112918705
 20
485.117143930393
 30
0.0
 41
1.0
  0
SPLINE
  5
8D
330
1F
100
AcDbEntity
  8
BLOCCO_stool_8500-60--2D
100
AcDbSpline
210
0.0
220
0.0
230
1.0
 70
    24
 71
     2
 72
     6
 73
     3
 74
     0
 42
0.0000000001
 43
0.0000000001
 40
-1.0
 40
-1.0
 40
-1.0
 40
0.0
 40
0.0
 40
0.0
 10
892.9188112918705
 20
485.117143930393
 30
0.0
 10
892.9188112918719
 20
485.6171439303929
 30
0.0
 10
892.9188112918732
 20
486.1171439303929
 30
0.0
  0
POLYLINE
  5
8E
330
1F
100
AcDbEntity
  8
BLOCCO_stool_8500-60--2D
100
AcDb2dPolyline
 66
     1
 10
0.0
 20
0.0
 30
0.0
  0
VERTEX
  5
8F
330
8E
100
AcDbEntity
  8
BLOCCO_stool_8500-60--2D
100
AcDbVertex
100
AcDb2dVertex
 10
868.9188112918868
 20
486.1171439303929
 30
0.0
  0
VERTEX
  5
90
330
8E
100
AcDbEntity
  8
BLOCCO_stool_8500-60--2D
100
AcDbVertex
100
AcDb2dVertex
 10
892.9188112918732
 20
486.1171439303929
 30
0.0
  0
SEQEND
  5
91
330
8E
100
AcDbEntity
  8
BLOCCO_stool_8500-60--2D
  0
SPLINE
  5
92
330
1F
100
AcDbEntity
  8
BLOCCO_stool_8500-60--2D
100
AcDbSpline
210
0.0
220
0.0
230
1.0
 70
    24
 71
     2
 72
     6
 73
     3
 74
     0
 42
0.0000000001
 43
0.0000000001
 40
0.0
 40
0.0
 40
0.0
 40
1.0
 40
1.0
 40
1.0
 10
-163.9636095554764
 20
486.116617929949
 30
0.0
 10
-163.9639126600963
 20
485.616617929949
 30
0.0
 10
-163.9642157647162
 20
485.116617929949
 30
0.0
  0
SPLINE
  5
93
330
1F
100
AcDbEntity
  8
BLOCCO_stool_8500-60--2D
100
AcDbSpline
210
0.0
220
0.0
230
1.0
 70
    12
 71
     2
 72
     6
 73
     3
 74
     0
 42
0.0000000001
 43
0.0000000001
 40
-1.570793873243079
 40
-1.570793873243079
 40
-1.570793873243079
 40
0.0
 40
0.0
 40
0.0
 10
-163.9642157647163
 20
485.116617929949
 30
0.0
 41
0.9999999991992334
 10
-163.9648187849091
 20
484.1166222026895
 30
0.0
 41
0.7071094190499073
 10
-162.9648230595871
 20
484.1166179299496
 30
0.0
 41
1.0
  0
POLYLINE
  5
94
330
1F
100
AcDbEntity
  8
BLOCCO_stool_8500-60--2D
100
AcDb2dPolyline
 66
     1
 10
0.0
 20
0.0
 30
0.0
  0
VERTEX
  5
95
330
94
100
AcDbEntity
  8
BLOCCO_stool_8500-60--2D
100
AcDbVertex
100
AcDb2dVertex
 10
-162.9648230595871
 20
484.1166179299496
 30
0.0
  0
VERTEX
  5
96
330
94
100
AcDbEntity
  8
BLOCCO_stool_8500-60--2D
100
AcDbVertex
100
AcDb2dVertex
 10
-133.6251369089217
 20
484.116617929949
 30
0.0
  0
SEQEND
  5
97
330
94
100
AcDbEntity
  8
BLOCCO_stool_8500-60--2D
  0
SPLINE
  5
98
330
1F
100
AcDbEntity
  8
BLOCCO_stool_8500-60--2D
100
AcDbSpline
210
0.0
220
0.0
230
1.0
 70
    12
 71
     2
 72
     8
 73
     5
 74
     0
 42
0.0000000001
 43
0.0000000001
 40
0.0
 40
0.0
 40
0.0
 40
0.7853981633974549
 40
0.7853981633974549
 40
1.570796326794861
 40
1.570796326794861
 40
1.570796326794861
 10
-133.6251369089217
 20
484.116617929949
 30
0.0
 41
1.0
 10
-133.2109233465484
 20
484.1166179299491
 30
0.0
 41
0.9238795325112342
 10
-132.9180301277351
 20
484.4095111487624
 30
0.0
 41
1.0
 10
-132.6251369089215
 20
484.7024043675758
 30
0.0
 41
0.9238795325114288
 10
-132.6251369089217
 20
485.116617929949
 30
0.0
 41
1.0
  0
SPLINE
  5
99
330
1F
100
AcDbEntity
  8
BLOCCO_stool_8500-60--2D
100
AcDbSpline
210
0.0
220
0.0
230
1.0
 70
    24
 71
     2
 72
     6
 73
     3
 74
     0
 42
0.0000000001
 43
0.0000000001
 40
-1.0
 40
-1.0
 40
-1.0
 40
0.0
 40
0.0
 40
0.0
 10
-132.6251369089217
 20
485.116617929949
 30
0.0
 10
-132.6251369089217
 20
485.616617929949
 30
0.0
 10
-132.6251369089217
 20
486.116617929949
 30
0.0
  0
SPLINE
  5
9A
330
1F
100
AcDbEntity
  8
BLOCCO_stool_8500-60--2D
100
AcDbSpline
210
0.0
220
0.0
230
1.0
 70
    12
 71
     3
 72
    11
 73
     7
 74
     0
 42
0.0000000001
 43
0.0000000001
 40
0.37118460102435
 40
0.37118460102435
 40
0.37118460102435
 40
0.37118460102435
 40
0.7853981633974501
 40
0.7853981633974501
 40
0.7853981633974501
 40
1.19961172577054
 40
1.19961172577054
 40
1.19961172577054
 40
1.19961172577054
 10
-149.5684555145139
 20
484.116617929949
 30
0.0
 41
1.0
 10
-149.742359255987
 20
484.116617929949
 30
0.0
 41
0.9512775218855825
 10
-149.9092303102397
 20
484.2142490028868
 30
0.0
 41
0.9485864075433493
 10
-150.0392315123298
 20
484.4095111487624
 30
0.0
 41
1.0
 10
-150.1692327144201
 20
484.604773294638
 30
0.0
 41
0.9485864075433507
 10
-150.2342333154651
 20
484.8554140549852
 30
0.0
 41
0.9512775218855825
 10
-150.2342333154651
 20
485.116617929949
 30
0.0
 41
1.0
  0
SPLINE
  5
9B
330
1F
100
AcDbEntity
  8
BLOCCO_stool_8500-60--2D
100
AcDbSpline
210
0.0
220
0.0
230
1.0
 70
    24
 71
     2
 72
     6
 73
     3
 74
     0
 42
0.0000000001
 43
0.0000000001
 40
-1.0
 40
-1.0
 40
-1.0
 40
0.0
 40
0.0
 40
0.0
 10
-150.2342333154651
 20
485.116617929949
 30
0.0
 10
-150.2342333154651
 20
485.616617929949
 30
0.0
 10
-150.2342333154651
 20
486.116617929949
 30
0.0
  0
SPLINE
  5
9C
330
1F
100
AcDbEntity
  8
BLOCCO_stool_8500-60--2D
100
AcDbSpline
210
0.0
220
0.0
230
1.0
 70
    24
 71
     2
 72
     6
 73
     3
 74
     0
 42
0.0000000001
 43
0.0000000001
 40
0.0
 40
0.0
 40
0.0
 40
1.0
 40
1.0
 40
1.0
 10
163.963645457407
 20
486.116617929949
 30
0.0
 10
163.9639485620269
 20
485.616617929949
 30
0.0
 10
163.9642516666468
 20
485.116617929949
 30
0.0
  0
SPLINE
  5
9D
330
1F
100
AcDbEntity
  8
BLOCCO_stool_8500-60--2D
100
AcDbSpline
210
0.0
220
0.0
230
1.0
 70
    12
 71
     2
 72
     6
 73
     3
 74
     0
 42
0.0000000001
 43
0.0000000001
 40
-1.570793873243079
 40
-1.570793873243079
 40
-1.570793873243079
 40
0.0
 40
0.0
 40
0.0
 10
163.9642516666466
 20
485.116617929949
 30
0.0
 41
0.9999999991992334
 10
163.9648546868399
 20
484.1166222026895
 30
0.0
 41
0.7071094190499073
 10
162.9648589615177
 20
484.1166179299496
 30
0.0
 41
1.0
  0
POLYLINE
  5
9E
330
1F
100
AcDbEntity
  8
BLOCCO_stool_8500-60--2D
100
AcDb2dPolyline
 66
     1
 10
0.0
 20
0.0
 30
0.0
  0
VERTEX
  5
9F
330
9E
100
AcDbEntity
  8
BLOCCO_stool_8500-60--2D
100
AcDbVertex
100
AcDb2dVertex
 10
162.9648589615177
 20
484.1166179299496
 30
0.0
  0
VERTEX
  5
A0
330
9E
100
AcDbEntity
  8
BLOCCO_stool_8500-60--2D
100
AcDbVertex
100
AcDb2dVertex
 10
133.6251728108523
 20
484.116617929949
 30
0.0
  0
SEQEND
  5
A1
330
9E
100
AcDbEntity
  8
BLOCCO_stool_8500-60--2D
  0
SPLINE
  5
A2
330
1F
100
AcDbEntity
  8
BLOCCO_stool_8500-60--2D
100
AcDbSpline
210
0.0
220
0.0
230
1.0
 70
    12
 71
     2
 72
     8
 73
     5
 74
     0
 42
0.0000000001
 43
0.0000000001
 40
0.0
 40
0.0
 40
0.0
 40
0.7853981633974549
 40
0.7853981633974549
 40
1.570796326794861
 40
1.570796326794861
 40
1.570796326794861
 10
133.6251728108523
 20
484.116617929949
 30
0.0
 41
1.0
 10
133.2109592484792
 20
484.1166179299491
 30
0.0
 41
0.9238795325112342
 10
132.9180660296657
 20
484.4095111487624
 30
0.0
 41
1.0
 10
132.625172810852
 20
484.7024043675758
 30
0.0
 41
0.9238795325114288
 10
132.6251728108523
 20
485.116617929949
 30
0.0
 41
1.0
  0
SPLINE
  5
A3
330
1F
100
AcDbEntity
  8
BLOCCO_stool_8500-60--2D
100
AcDbSpline
210
0.0
220
0.0
230
1.0
 70
    24
 71
     2
 72
     6
 73
     3
 74
     0
 42
0.0000000001
 43
0.0000000001
 40
-1.0
 40
-1.0
 40
-1.0
 40
0.0
 40
0.0
 40
0.0
 10
132.6251728108523
 20
485.116617929949
 30
0.0
 10
132.6251728108523
 20
485.616617929949
 30
0.0
 10
132.6251728108523
 20
486.116617929949
 30
0.0
  0
SPLINE
  5
A4
330
1F
100
AcDbEntity
  8
BLOCCO_stool_8500-60--2D
100
AcDbSpline
210
0.0
220
0.0
230
1.0
 70
    12
 71
     3
 72
    11
 73
     7
 74
     0
 42
0.0000000001
 43
0.0000000001
 40
0.37118460102435
 40
0.37118460102435
 40
0.37118460102435
 40
0.37118460102435
 40
0.7853981633974501
 40
0.7853981633974501
 40
0.7853981633974501
 40
1.19961172577054
 40
1.19961172577054
 40
1.19961172577054
 40
1.19961172577054
 10
149.5684914164445
 20
484.116617929949
 30
0.0
 41
1.0
 10
149.7423951579174
 20
484.116617929949
 30
0.0
 41
0.9512775218855825
 10
149.9092662121703
 20
484.2142490028868
 30
0.0
 41
0.9485864075433493
 10
150.03926741426
 20
484.4095111487624
 30
0.0
 41
1.0
 10
150.1692686163506
 20
484.604773294638
 30
0.0
 41
0.9485864075433507
 10
150.2342692173955
 20
484.8554140549852
 30
0.0
 41
0.9512775218855825
 10
150.2342692173957
 20
485.116617929949
 30
0.0
 41
1.0
  0
SPLINE
  5
A5
330
1F
100
AcDbEntity
  8
BLOCCO_stool_8500-60--2D
100
AcDbSpline
210
0.0
220
0.0
230
1.0
 70
    24
 71
     2
 72
     6
 73
     3
 74
     0
 42
0.0000000001
 43
0.0000000001
 40
-1.0
 40
-1.0
 40
-1.0
 40
0.0
 40
0.0
 40
0.0
 10
150.2342692173957
 20
485.116617929949
 30
0.0
 10
150.2342692173957
 20
485.616617929949
 30
0.0
 10
150.2342692173957
 20
486.116617929949
 30
0.0
  0
SPLINE
  5
A6
330
1F
100
AcDbEntity
  8
BLOCCO_stool_8500-60--2D
100
AcDbSpline
210
0.0
220
0.0
230
1.0
 70
    12
 71
     2
 72
    12
 73
     9
 74
     0
 42
0.0000000001
 43
0.0000000001
 40
0.0
 40
0.0
 40
0.0
 40
0.2770406638441908
 40
0.2770406638441908
 40
0.5902373961792817
 40
0.5902373961792817
 40
0.9487399036390806
 40
0.9487399036390806
 40
1.336202734380564
 40
1.336202734380564
 40
1.336202734380564
 10
660.9056058564803
 20
484.117143930393
 30
0.0
 41
1.0
 10
660.7635289816434
 20
484.1183372128695
 30
0.0
 41
0.9628202993425032
 10
660.6428095580505
 20
484.1932643978817
 30
0.0
 41
1.0
 10
660.5080331598458
 20
484.2776195122062
 30
0.0
 41
0.9775118004740795
 10
660.4200216138025
 20
484.4100371492064
 30
0.0
 41
1.0
 10
660.3191622215639
 20
484.5601221490948
 30
0.0
 41
0.9869862567089956
 10
660.2711594686699
 20
484.7344604980279
 30
0.0
 41
1.0
 10
660.2184809029717
 20
484.9221766755569
 30
0.0
 41
0.9905158109185943
 10
660.2188860348107
 20
485.117143930393
 30
0.0
 41
1.0
  0
SPLINE
  5
A7
330
1F
100
AcDbEntity
  8
BLOCCO_stool_8500-60--2D
100
AcDbSpline
210
0.0
220
0.0
230
1.0
 70
    24
 71
     2
 72
     6
 73
     3
 74
     0
 42
0.0000000001
 43
0.0000000001
 40
-1.0
 40
-1.0
 40
-1.0
 40
0.0
 40
0.0
 40
0.0
 10
660.2188860348107
 20
485.117143930393
 30
0.0
 10
660.2188860348107
 20
485.6171439303929
 30
0.0
 10
660.2188860348107
 20
486.1171439303929
 30
0.0
  0
POLYLINE
  5
A8
330
1F
100
AcDbEntity
  8
BLOCCO_stool_8500-60--2D
100
AcDb2dPolyline
 66
     1
 10
0.0
 20
0.0
 30
0.0
  0
VERTEX
  5
A9
330
A8
100
AcDbEntity
  8
BLOCCO_stool_8500-60--2D
100
AcDbVertex
100
AcDb2dVertex
 10
660.0277696721497
 20
484.117143930393
 30
0.0
  0
VERTEX
  5
AA
330
A8
100
AcDbEntity
  8
BLOCCO_stool_8500-60--2D
100
AcDbVertex
100
AcDb2dVertex
 10
682.1147717850719
 20
484.117143930393
 30
0.0
  0
SEQEND
  5
AB
330
A8
100
AcDbEntity
  8
BLOCCO_stool_8500-60--2D
  0
SPLINE
  5
AC
330
1F
100
AcDbEntity
  8
BLOCCO_stool_8500-60--2D
100
AcDbSpline
210
0.0
220
0.0
230
1.0
 70
    12
 71
     2
 72
     8
 73
     5
 74
     0
 42
0.0000000001
 43
0.0000000001
 40
-0.7853981633975704
 40
-0.7853981633975704
 40
-0.7853981633975704
 40
-0.3926990816987544
 40
-0.3926990816987544
 40
0.0
 40
0.0
 40
0.0
 10
682.1147717850719
 20
484.117143930393
 30
0.0
 41
1.0
 10
682.3136841524516
 20
484.1171439303931
 30
0.0
 41
0.9807852804032496
 10
682.4974552174372
 20
484.1932643978817
 30
0.0
 41
1.0
 10
682.6812262824225
 20
484.2693848653704
 30
0.0
 41
0.9807852804032256
 10
682.8218785662585
 20
484.4100371492065
 30
0.0
 41
1.0
  0
SPLINE
  5
AD
330
1F
100
AcDbEntity
  8
BLOCCO_stool_8500-60--2D
100
AcDbSpline
210
0.0
220
0.0
230
1.0
 70
    12
 71
     2
 72
     8
 73
     5
 74
     0
 42
0.0000000001
 43
0.0000000001
 40
-0.7853981633974212
 40
-0.7853981633974212
 40
-0.7853981633974212
 40
-0.3926990816986868
 40
-0.3926990816986868
 40
0.0
 40
0.0
 40
0.0
 10
682.8218785662585
 20
484.4100371492065
 30
0.0
 41
1.0
 10
682.9625308500943
 20
484.5506894330425
 30
0.0
 41
0.9807852804033194
 10
683.0386513175836
 20
484.7344604980279
 30
0.0
 41
1.0
 10
683.1147717850718
 20
484.9182315630135
 30
0.0
 41
0.9807852804033268
 10
683.1147717850718
 20
485.117143930393
 30
0.0
 41
1.0
  0
SPLINE
  5
AE
330
1F
100
AcDbEntity
  8
BLOCCO_stool_8500-60--2D
100
AcDbSpline
210
0.0
220
0.0
230
1.0
 70
    24
 71
     2
 72
     6
 73
     3
 74
     0
 42
0.0000000001
 43
0.0000000001
 40
0.0
 40
0.0
 40
0.0
 40
1.0
 40
1.0
 40
1.0
 10
683.1147717850718
 20
485.117143930393
 30
0.0
 10
683.1147717850718
 20
485.6171439303929
 30
0.0
 10
683.1147717850718
 20
486.1171439303929
 30
0.0
  0
SPLINE
  5
AF
330
1F
100
AcDbEntity
  8
BLOCCO_stool_8500-60--2D
100
AcDbSpline
210
0.0
220
0.0
230
1.0
 70
    12
 71
     2
 72
    12
 73
     9
 74
     0
 42
0.0000000001
 43
0.0000000001
 40
0.0
 40
0.0
 40
0.0
 40
0.3926990816987073
 40
0.3926990816987073
 40
0.7853981633973948
 40
0.7853981633973948
 40
1.178097245096191
 40
1.178097245096191
 40
1.57079632679491
 40
1.57079632679491
 40
1.57079632679491
 10
660.0230956840342
 20
484.117143930393
 30
0.0
 41
1.0
 10
659.8241833166545
 20
484.1171439303931
 30
0.0
 41
0.9807852804032226
 10
659.6404122516688
 20
484.1932643978817
 30
0.0
 41
1.0
 10
659.456641186684
 20
484.2693848653706
 30
0.0
 41
0.9807852804032322
 10
659.3159889028476
 20
484.4100371492064
 30
0.0
 41
1.0
 10
659.1753366190113
 20
484.5506894330425
 30
0.0
 41
0.9807852804032368
 10
659.0992161515224
 20
484.7344604980279
 30
0.0
 41
1.0
 10
659.0230956840338
 20
484.9182315630134
 30
0.0
 41
0.9807852804032183
 10
659.0230956840342
 20
485.117143930393
 30
0.0
 41
1.0
  0
POLYLINE
  5
B0
330
1F
100
AcDbEntity
  8
BLOCCO_stool_8500-60--2D
100
AcDb2dPolyline
 66
     1
 10
0.0
 20
0.0
 30
0.0
  0
VERTEX
  5
B1
330
B0
100
AcDbEntity
  8
BLOCCO_stool_8500-60--2D
100
AcDbVertex
100
AcDb2dVertex
 10
659.0230956840342
 20
485.117143930393
 30
0.0
  0
VERTEX
  5
B2
330
B0
100
AcDbEntity
  8
BLOCCO_stool_8500-60--2D
100
AcDbVertex
100
AcDb2dVertex
 10
659.0230956900296
 20
486.1171477311025
 30
0.0
  0
SEQEND
  5
B3
330
B0
100
AcDbEntity
  8
BLOCCO_stool_8500-60--2D
  0
SPLINE
  5
B4
330
1F
100
AcDbEntity
  8
BLOCCO_stool_8500-60--2D
100
AcDbSpline
210
0.0
220
0.0
230
1.0
 70
    12
 71
     2
 72
    12
 73
     9
 74
     0
 42
0.0000000001
 43
0.0000000001
 40
0.0
 40
0.0
 40
0.0
 40
0.2770406638441908
 40
0.2770406638441908
 40
0.5902373961792817
 40
0.5902373961792817
 40
0.9487399036390806
 40
0.9487399036390806
 40
1.336202734380564
 40
1.336202734380564
 40
1.336202734380564
 10
1100.930847133133
 20
484.1171439303931
 30
0.0
 41
1.0
 10
1101.072924007969
 20
484.1183372128696
 30
0.0
 41
0.9628202993425032
 10
1101.193643431563
 20
484.1932643978818
 30
0.0
 41
1.0
 10
1101.328419829767
 20
484.2776195122063
 30
0.0
 41
0.9775118004740795
 10
1101.416431375811
 20
484.4100371492065
 30
0.0
 41
1.0
 10
1101.51729076805
 20
484.5601221490949
 30
0.0
 41
0.9869862567089956
 10
1101.565293520943
 20
484.734460498028
 30
0.0
 41
1.0
 10
1101.617972086641
 20
484.922176675557
 30
0.0
 41
0.9905158109185943
 10
1101.617566954802
 20
485.1171439303931
 30
0.0
 41
1.0
  0
SPLINE
  5
B5
330
1F
100
AcDbEntity
  8
BLOCCO_stool_8500-60--2D
100
AcDbSpline
210
0.0
220
0.0
230
1.0
 70
    24
 71
     2
 72
     6
 73
     3
 74
     0
 42
0.0000000001
 43
0.0000000001
 40
-1.0
 40
-1.0
 40
-1.0
 40
0.0
 40
0.0
 40
0.0
 10
1101.617566954802
 20
485.1171439303931
 30
0.0
 10
1101.617566954802
 20
485.6171439303931
 30
0.0
 10
1101.617566954802
 20
486.1171439303931
 30
0.0
  0
POLYLINE
  5
B6
330
1F
100
AcDbEntity
  8
BLOCCO_stool_8500-60--2D
100
AcDb2dPolyline
 66
     1
 10
0.0
 20
0.0
 30
0.0
  0
VERTEX
  5
B7
330
B6
100
AcDbEntity
  8
BLOCCO_stool_8500-60--2D
100
AcDbVertex
100
AcDb2dVertex
 10
1101.808683317464
 20
484.1171439303931
 30
0.0
  0
VERTEX
  5
B8
330
B6
100
AcDbEntity
  8
BLOCCO_stool_8500-60--2D
100
AcDbVertex
100
AcDb2dVertex
 10
1079.721681204541
 20
484.1171439303931
 30
0.0
  0
SEQEND
  5
B9
330
B6
100
AcDbEntity
  8
BLOCCO_stool_8500-60--2D
  0
SPLINE
  5
BA
330
1F
100
AcDbEntity
  8
BLOCCO_stool_8500-60--2D
100
AcDbSpline
210
0.0
220
0.0
230
1.0
 70
    12
 71
     2
 72
     8
 73
     5
 74
     0
 42
0.0000000001
 43
0.0000000001
 40
-0.7853981633975704
 40
-0.7853981633975704
 40
-0.7853981633975704
 40
-0.3926990816987544
 40
-0.3926990816987544
 40
0.0
 40
0.0
 40
0.0
 10
1079.721681204541
 20
484.1171439303931
 30
0.0
 41
1.0
 10
1079.522768837162
 20
484.1171439303932
 30
0.0
 41
0.9807852804032496
 10
1079.338997772176
 20
484.1932643978818
 30
0.0
 41
1.0
 10
1079.15522670719
 20
484.2693848653705
 30
0.0
 41
0.9807852804032256
 10
1079.014574423355
 20
484.4100371492067
 30
0.0
 41
1.0
  0
SPLINE
  5
BB
330
1F
100
AcDbEntity
  8
BLOCCO_stool_8500-60--2D
100
AcDbSpline
210
0.0
220
0.0
230
1.0
 70
    12
 71
     2
 72
     8
 73
     5
 74
     0
 42
0.0000000001
 43
0.0000000001
 40
-0.7853981633974212
 40
-0.7853981633974212
 40
-0.7853981633974212
 40
-0.3926990816986868
 40
-0.3926990816986868
 40
0.0
 40
0.0
 40
0.0
 10
1079.014574423355
 20
484.4100371492067
 30
0.0
 41
1.0
 10
1078.873922139518
 20
484.5506894330426
 30
0.0
 41
0.9807852804033194
 10
1078.797801672029
 20
484.734460498028
 30
0.0
 41
1.0
 10
1078.721681204541
 20
484.9182315630136
 30
0.0
 41
0.9807852804033268
 10
1078.721681204541
 20
485.1171439303931
 30
0.0
 41
1.0
  0
SPLINE
  5
BC
330
1F
100
AcDbEntity
  8
BLOCCO_stool_8500-60--2D
100
AcDbSpline
210
0.0
220
0.0
230
1.0
 70
    24
 71
     2
 72
     6
 73
     3
 74
     0
 42
0.0000000001
 43
0.0000000001
 40
0.0
 40
0.0
 40
0.0
 40
1.0
 40
1.0
 40
1.0
 10
1078.721681204541
 20
485.1171439303931
 30
0.0
 10
1078.721681204541
 20
485.6171439303931
 30
0.0
 10
1078.721681204541
 20
486.1171439303931
 30
0.0
  0
SPLINE
  5
BD
330
1F
100
AcDbEntity
  8
BLOCCO_stool_8500-60--2D
100
AcDbSpline
210
0.0
220
0.0
230
1.0
 70
    12
 71
     2
 72
    12
 73
     9
 74
     0
 42
0.0000000001
 43
0.0000000001
 40
0.0
 40
0.0
 40
0.0
 40
0.3926990816987073
 40
0.3926990816987073
 40
0.7853981633973948
 40
0.7853981633973948
 40
1.178097245096191
 40
1.178097245096191
 40
1.57079632679491
 40
1.57079632679491
 40
1.57079632679491
 10
1101.813357305579
 20
484.1171439303931
 30
0.0
 41
1.0
 10
1102.012269672958
 20
484.1171439303932
 30
0.0
 41
0.9807852804032226
 10
1102.196040737944
 20
484.1932643978818
 30
0.0
 41
1.0
 10
1102.379811802929
 20
484.2693848653707
 30
0.0
 41
0.9807852804032322
 10
1102.520464086766
 20
484.4100371492065
 30
0.0
 41
1.0
 10
1102.661116370602
 20
484.5506894330426
 30
0.0
 41
0.9807852804032368
 10
1102.737236838091
 20
484.734460498028
 30
0.0
 41
1.0
 10
1102.81335730558
 20
484.9182315630135
 30
0.0
 41
0.9807852804032183
 10
1102.813357305579
 20
485.1171439303931
 30
0.0
 41
1.0
  0
POLYLINE
  5
BE
330
1F
100
AcDbEntity
  8
BLOCCO_stool_8500-60--2D
100
AcDb2dPolyline
 66
     1
 10
0.0
 20
0.0
 30
0.0
  0
VERTEX
  5
BF
330
BE
100
AcDbEntity
  8
BLOCCO_stool_8500-60--2D
100
AcDbVertex
100
AcDb2dVertex
 10
1102.813357305579
 20
485.1171439303931
 30
0.0
  0
VERTEX
  5
C0
330
BE
100
AcDbEntity
  8
BLOCCO_stool_8500-60--2D
100
AcDbVertex
100
AcDb2dVertex
 10
1102.813357299583
 20
486.1171477311025
 30
0.0
  0
SEQEND
  5
C1
330
BE
100
AcDbEntity
  8
BLOCCO_stool_8500-60--2D
  0
SPLINE
  5
C2
330
1F
100
AcDbEntity
  8
BLOCCO_stool_8500-60--2D
100
AcDbSpline
210
0.0
220
0.0
230
1.0
 70
    24
 71
     2
 72
     6
 73
     3
 74
     0
 42
0.0000000001
 43
0.0000000001
 40
0.0
 40
0.0
 40
0.0
 40
421.6440790585465
 40
421.6440790585465
 40
421.6440790585465
 10
1018.365952594798
 20
1084.385919886472
 30
0.0
 10
1038.57234962133
 20
874.5344632070178
 30
0.0
 10
1058.778746647861
 20
664.6830065275642
 30
0.0
  0
SPLINE
  5
C3
330
1F
100
AcDbEntity
  8
BLOCCO_stool_8500-60--2D
100
AcDbSpline
210
0.0
220
0.0
230
1.0
 70
     8
 71
     3
 72
    14
 73
    10
 74
     0
 42
0.0000000001
 43
0.0000000001
 40
0.0
 40
0.0
 40
0.0
 40
0.0
 40
0.0067919548274357
 40
0.1305272860383143
 40
0.212980183934083
 40
0.3927842460078457
 40
0.7753971163877745
 40
1.553602446039679
 40
3.148844788167115
 40
3.148844788167115
 40
3.148844788167115
 40
3.148844788167115
 10
1058.778746647861
 20
664.6830065275642
 30
0.0
 10
1058.780990894599
 20
664.6827076562788
 30
0.0
 10
1058.824458863756
 20
664.6808032815872
 30
0.0
 10
1058.895382470708
 20
664.6776093916639
 30
0.0
 10
1059.023840257934
 20
664.6703472641368
 30
0.0
 10
1059.238262694693
 20
664.6549698581471
 30
0.0
 10
1059.682888378842
 20
664.609357634785
 30
0.0
 10
1060.590159186833
 20
664.4603072086044
 30
0.0
 10
1061.352980767149
 20
664.2421719512245
 30
0.0
 10
1061.852586629093
 20
664.0602493355333
 30
0.0
  0
SPLINE
  5
C4
330
1F
100
AcDbEntity
  8
BLOCCO_stool_8500-60--2D
100
AcDbSpline
210
0.0
220
0.0
230
1.0
 70
     8
 71
     3
 72
    15
 73
    11
 74
     0
 42
0.0000000001
 43
0.0000000001
 40
0.0
 40
0.0
 40
0.0
 40
0.0
 40
2.954586572683216
 40
5.784082060623966
 40
8.629503902582193
 40
11.56437676960426
 40
14.49335163622162
 40
17.34509062417885
 40
20.33429673076986
 40
23.19580231110327
 40
23.19580231110327
 40
23.19580231110327
 40
23.19580231110327
 10
1061.852586629093
 20
664.0602493355333
 30
0.0
 10
1062.778019410039
 20
663.7233984615875
 30
0.0
 10
1064.494947182052
 20
662.8034507953905
 30
0.0
 10
1066.575774237842
 20
660.7782321774037
 30
0.0
 10
1068.02456606384
 20
658.2689643891769
 30
0.0
 10
1068.728829238112
 20
655.4217506365355
 30
0.0
 10
1068.602059694072
 20
652.4896679322116
 30
0.0
 10
1067.660810353935
 20
649.6920014575648
 30
0.0
 10
1065.984947288074
 20
647.2868556464577
 30
0.0
 10
1064.451922157495
 20
646.0508927721194
 30
0.0
 10
1063.633915406507
 20
645.5604426518132
 30
0.0
  0
SPLINE
  5
C5
330
1F
100
AcDbEntity
  8
BLOCCO_stool_8500-60--2D
100
AcDbSpline
210
0.0
220
0.0
230
1.0
 70
     8
 71
     3
 72
    18
 73
    14
 74
     0
 42
0.0000000001
 43
0.0000000001
 40
0.0
 40
0.0
 40
0.0
 40
0.0
 40
0.3689706308608244
 40
0.7739461695982069
 40
1.560284753323193
 40
2.277330793379872
 40
2.59427550288188
 40
2.801248154399745
 40
3.046711958151978
 40
3.094522847479428
 40
3.143137741923292
 40
3.154572041897182
 40
3.157844605016383
 40
3.157844605016383
 40
3.157844605016383
 40
3.157844605016383
 10
1063.633915406507
 20
645.5604426518132
 30
0.0
 10
1063.52843347869
 20
645.4971978291364
 30
0.0
 10
1063.305099685293
 20
645.3679892578379
 30
0.0
 10
1062.846364319637
 20
645.1227521118389
 30
0.0
 10
1062.270064201488
 20
644.8525146641079
 30
0.0
 10
1061.704119405411
 20
644.6327829128863
 30
0.0
 10
1061.311826677888
 20
644.5014431849285
 30
0.0
 10
1061.066921104979
 20
644.4253029968534
 30
0.0
 10
1060.906829902996
 20
644.3786257808006
 30
0.0
 10
1060.797576159402
 20
644.3462277338242
 30
0.0
 10
1060.763321312799
 20
644.3352379777784
 30
0.0
 10
1060.743642186704
 20
644.3276319281983
 30
0.0
 10
1060.73944161501
 20
644.3249083744644
 30
0.0
 10
1060.739113568178
 20
644.3238176373013
 30
0.0
  0
SPLINE
  5
C6
330
1F
100
AcDbEntity
  8
BLOCCO_stool_8500-60--2D
100
AcDbSpline
210
0.0
220
0.0
230
1.0
 70
    24
 71
     2
 72
     6
 73
     3
 74
     0
 42
0.0000000001
 43
0.0000000001
 40
0.0
 40
0.0
 40
0.0
 40
155.7181740415822
 40
155.7181740415822
 40
155.7181740415822
 10
1060.739113568178
 20
644.3238176373013
 30
0.0
 10
1068.201576354224
 20
566.8231784084664
 30
0.0
 10
1075.664039140269
 20
489.3225391796317
 30
0.0
  0
SPLINE
  5
C7
330
1F
100
AcDbEntity
  8
BLOCCO_stool_8500-60--2D
100
AcDbSpline
210
0.0
220
0.0
230
1.0
 70
    24
 71
     2
 72
     6
 73
     3
 74
     0
 42
0.0000000001
 43
0.0000000001
 40
286.0494172759178
 40
286.0494172759178
 40
286.0494172759178
 40
286.5446296420719
 40
286.5446296420719
 40
286.5446296420719
 10
1075.664039140269
 20
489.3225391796317
 30
0.0
 10
1075.687771141215
 20
489.0760729263046
 30
0.0
 10
1075.71150314216
 20
488.8296066729775
 30
0.0
  0
SPLINE
  5
C8
330
1F
100
AcDbEntity
  8
BLOCCO_stool_8500-60--2D
100
AcDbSpline
210
0.0
220
0.0
230
1.0
 70
    12
 71
     2
 72
     6
 73
     3
 74
     0
 42
0.0000000001
 43
0.0000000001
 40
-4.424409653805651
 40
-4.424409653805651
 40
-4.424409653805651
 40
0.0
 40
0.0
 40
0.0
 10
1075.71150314216
 20
488.8296066729775
 30
0.0
 41
1.0
 10
1075.972683597902
 20
486.1171439305382
 30
0.0
 41
0.7402181274868563
 10
1078.697691737263
 20
486.1171439305381
 30
0.0
 41
1.0
  0
POLYLINE
  5
C9
330
1F
100
AcDbEntity
  8
BLOCCO_stool_8500-60--2D
100
AcDb2dPolyline
 66
     1
 10
0.0
 20
0.0
 30
0.0
  0
VERTEX
  5
CA
330
C9
100
AcDbEntity
  8
BLOCCO_stool_8500-60--2D
100
AcDbVertex
100
AcDb2dVertex
 10
1078.697691737263
 20
486.1171439305381
 30
0.0
  0
VERTEX
  5
CB
330
C9
100
AcDbEntity
  8
BLOCCO_stool_8500-60--2D
100
AcDbVertex
100
AcDb2dVertex
 10
1102.813357299583
 20
486.1171477311025
 30
0.0
  0
SEQEND
  5
CC
330
C9
100
AcDbEntity
  8
BLOCCO_stool_8500-60--2D
  0
SPLINE
  5
CD
330
1F
100
AcDbEntity
  8
BLOCCO_stool_8500-60--2D
100
AcDbSpline
210
0.0
220
0.0
230
1.0
 70
    12
 71
     2
 72
     8
 73
     5
 74
     0
 42
0.0000000001
 43
0.0000000001
 40
0.0
 40
0.0
 40
0.0
 40
2.497865437304303
 40
2.497865437304303
 40
4.911074843119115
 40
4.911074843119115
 40
4.911074843119115
 10
1102.813357299583
 20
486.1171477311025
 30
0.0
 41
1.0
 10
1104.139808077999
 20
486.1192183742812
 30
0.0
 41
0.9145888815391323
 10
1105.030905713878
 20
487.101776748352
 30
0.0
 41
1.0
 10
1105.889086682444
 20
488.0480399446423
 30
0.0
 41
0.9174835796385542
 10
1105.802204596286
 20
489.3225391796318
 30
0.0
 41
0.994406814253327
  0
SPLINE
  5
CE
330
1F
100
AcDbEntity
  8
BLOCCO_stool_8500-60--2D
100
AcDbSpline
210
0.0
220
0.0
230
1.0
 70
    24
 71
     2
 72
     6
 73
     3
 74
     0
 42
0.0000000001
 43
0.0000000001
 40
130.2487180825989
 40
130.2487180825989
 40
130.2487180825989
 40
728.0643210331962
 40
728.0643210331962
 40
728.0643210331962
 10
1105.802204596286
 20
489.3225391796318
 30
0.0
 10
1077.153441766139
 20
786.8542295330516
 30
0.0
 10
1048.504678935993
 20
1084.385919886471
 30
0.0
  0
SPLINE
  5
CF
330
1F
100
AcDbEntity
  8
BLOCCO_stool_8500-60--2D
100
AcDbSpline
210
0.0
220
0.0
230
1.0
 70
    24
 71
     2
 72
     6
 73
     3
 74
     0
 42
0.0000000001
 43
0.0000000001
 40
0.0
 40
0.0
 40
0.0
 40
597.8156048097233
 40
597.8156048097233
 40
597.8156048097233
 10
1045.052821914838
 20
1084.385919531806
 30
0.0
 10
1073.701865170499
 20
786.8542293557189
 30
0.0
 10
1102.350908426159
 20
489.3225391796319
 30
0.0
  0
SPLINE
  5
D0
330
1F
100
AcDbEntity
  8
BLOCCO_stool_8500-60--2D
100
AcDbSpline
210
0.0
220
0.0
230
1.0
 70
    24
 71
     2
 72
     6
 73
     3
 74
     0
 42
0.0000000001
 43
0.0000000001
 40
728.1468480440589
 40
728.1468480440589
 40
728.1468480440589
 40
728.3531932656205
 40
728.3531932656205
 40
728.3531932656205
 10
1102.350908426159
 20
489.3225391796319
 30
0.0
 10
1102.360797082678
 20
489.219841555085
 30
0.0
 10
1102.370685739199
 20
489.1171439305382
 30
0.0
  0
SPLINE
  5
D1
330
1F
100
AcDbEntity
  8
BLOCCO_stool_8500-60--2D
100
AcDbSpline
210
0.0
220
0.0
230
1.0
 70
    12
 71
     2
 72
     6
 73
     3
 74
     0
 42
0.0000000001
 43
0.0000000001
 40
-4.707297621851685
 40
-4.707297621851685
 40
-4.707297621851685
 40
0.0
 40
0.0
 40
0.0
 10
892.9239026479676
 20
486.117148250859
 30
0.0
 41
1.0
 10
895.918811291879
 20
486.1283748153765
 30
0.0
 41
0.7077065488945041
 10
895.9188112918786
 20
489.1232877722825
 30
0.0
 41
1.0
  0
SPLINE
  5
D2
330
1F
100
AcDbEntity
  8
BLOCCO_stool_8500-60--2D
100
AcDbSpline
210
0.0
220
0.0
230
1.0
 70
    24
 71
     2
 72
     6
 73
     3
 74
     0
 42
0.0000000001
 43
0.0000000001
 40
-724.9938561581148
 40
-724.9938561581148
 40
-724.9938561581148
 40
-724.7946047507656
 40
-724.7946047507656
 40
-724.7946047507656
 10
895.9188112918786
 20
489.1232877722825
 30
0.0
 10
895.9188112918786
 20
489.222913475957
 30
0.0
 10
895.9188112918786
 20
489.3225391796317
 30
0.0
  0
SPLINE
  5
D3
330
1F
100
AcDbEntity
  8
BLOCCO_stool_8500-60--2D
100
AcDbSpline
210
0.0
220
0.0
230
1.0
 70
    24
 71
     2
 72
     6
 73
     3
 74
     0
 42
0.0000000001
 43
0.0000000001
 40
-595.0633807068398
 40
-595.0633807068398
 40
-595.0633807068398
 40
0.0
 40
0.0
 40
0.0
 10
895.9188112918786
 20
489.3225391796317
 30
0.0
 10
895.9188112918786
 20
786.8542295330517
 30
0.0
 10
895.9188112918786
 20
1084.385919886472
 30
0.0
  0
SPLINE
  5
D4
330
1F
100
AcDbEntity
  8
BLOCCO_stool_8500-60--2D
100
AcDbSpline
210
0.0
220
0.0
230
1.0
 70
    12
 71
     2
 72
     6
 73
     3
 74
     0
 42
0.0000000001
 43
0.0000000001
 40
-4.707297586214882
 40
-4.707297586214882
 40
-4.707297586214882
 40
0.0
 40
0.0
 40
0.0
 10
868.913719900153
 20
486.1171482509194
 30
0.0
 41
1.0
 10
865.9188112918783
 20
486.1283748568147
 30
0.0
 41
0.707706553090766
 10
865.9188112918787
 20
489.1232877781442
 30
0.0
 41
1.0
  0
SPLINE
  5
D5
330
1F
100
AcDbEntity
  8
BLOCCO_stool_8500-60--2D
100
AcDbSpline
210
0.0
220
0.0
230
1.0
 70
    24
 71
     2
 72
     6
 73
     3
 74
     0
 42
0.0000000001
 43
0.0000000001
 40
-724.993856152253
 40
-724.993856152253
 40
-724.993856152253
 40
-724.7946047507656
 40
-724.7946047507656
 40
-724.7946047507656
 10
865.9188112918787
 20
489.1232877781442
 30
0.0
 10
865.9188112918787
 20
489.2229134788879
 30
0.0
 10
865.9188112918787
 20
489.3225391796317
 30
0.0
  0
SPLINE
  5
D6
330
1F
100
AcDbEntity
  8
BLOCCO_stool_8500-60--2D
100
AcDbSpline
210
0.0
220
0.0
230
1.0
 70
    24
 71
     2
 72
     6
 73
     3
 74
     0
 42
0.0000000001
 43
0.0000000001
 40
-595.0633807068398
 40
-595.0633807068398
 40
-595.0633807068398
 40
0.0
 40
0.0
 40
0.0
 10
865.9188112918787
 20
489.3225391796317
 30
0.0
 10
865.9188112918787
 20
786.8542295330517
 30
0.0
 10
865.9188112918787
 20
1084.385919886472
 30
0.0
  0
SPLINE
  5
D7
330
1F
100
AcDbEntity
  8
BLOCCO_stool_8500-60--2D
100
AcDbSpline
210
0.0
220
0.0
230
1.0
 70
    24
 71
     2
 72
     6
 73
     3
 74
     0
 42
0.0000000001
 43
0.0000000001
 40
0.0
 40
0.0
 40
0.0
 40
421.6440790585465
 40
421.6440790585465
 40
421.6440790585465
 10
743.4716361370588
 20
1084.385919886472
 30
0.0
 10
723.265239110527
 20
874.5344632070178
 30
0.0
 10
703.0588420839953
 20
664.6830065275642
 30
0.0
  0
SPLINE
  5
D8
330
1F
100
AcDbEntity
  8
BLOCCO_stool_8500-60--2D
100
AcDbSpline
210
0.0
220
0.0
230
1.0
 70
     8
 71
     3
 72
    14
 73
    10
 74
     0
 42
0.0000000001
 43
0.0000000001
 40
0.0
 40
0.0
 40
0.0
 40
0.0
 40
0.0067919548274357
 40
0.1305272860383143
 40
0.212980183934083
 40
0.3927842460078457
 40
0.7753971163877745
 40
1.553602446039679
 40
3.148844788167115
 40
3.148844788167115
 40
3.148844788167115
 40
3.148844788167115
 10
703.0588420839953
 20
664.6830065275642
 30
0.0
 10
703.0565978372574
 20
664.6827076562788
 30
0.0
 10
703.0131298681013
 20
664.6808032815872
 30
0.0
 10
702.9422062611488
 20
664.6776093916639
 30
0.0
 10
702.8137484739231
 20
664.6703472641368
 30
0.0
 10
702.5993260371637
 20
664.6549698581471
 30
0.0
 10
702.1547003530153
 20
664.609357634785
 30
0.0
 10
701.2474295450233
 20
664.4603072086044
 30
0.0
 10
700.4846079647081
 20
664.2421719512245
 30
0.0
 10
699.9850021027636
 20
664.0602493355333
 30
0.0
  0
SPLINE
  5
D9
330
1F
100
AcDbEntity
  8
BLOCCO_stool_8500-60--2D
100
AcDbSpline
210
0.0
220
0.0
230
1.0
 70
     8
 71
     3
 72
    15
 73
    11
 74
     0
 42
0.0000000001
 43
0.0000000001
 40
0.0
 40
0.0
 40
0.0
 40
0.0
 40
2.954586572683216
 40
5.784082060623966
 40
8.629503902582193
 40
11.56437676960426
 40
14.49335163622162
 40
17.34509062417885
 40
20.33429673076986
 40
23.19580231110327
 40
23.19580231110327
 40
23.19580231110327
 40
23.19580231110327
 10
699.9850021027636
 20
664.0602493355333
 30
0.0
 10
699.0595693218178
 20
663.7233984615875
 30
0.0
 10
697.3426415498047
 20
662.8034507953905
 30
0.0
 10
695.2618144940147
 20
660.7782321774037
 30
0.0
 10
693.8130226680164
 20
658.2689643891769
 30
0.0
 10
693.1087594937448
 20
655.4217506365355
 30
0.0
 10
693.235529037785
 20
652.4896679322116
 30
0.0
 10
694.1767783779218
 20
649.6920014575648
 30
0.0
 10
695.8526414437833
 20
647.2868556464577
 30
0.0
 10
697.3856665743619
 20
646.0508927721194
 30
0.0
 10
698.2036733253494
 20
645.5604426518132
 30
0.0
  0
SPLINE
  5
DA
330
1F
100
AcDbEntity
  8
BLOCCO_stool_8500-60--2D
100
AcDbSpline
210
0.0
220
0.0
230
1.0
 70
     8
 71
     3
 72
    18
 73
    14
 74
     0
 42
0.0000000001
 43
0.0000000001
 40
0.0
 40
0.0
 40
0.0
 40
0.0
 40
0.3689706308608244
 40
0.7739461695982069
 40
1.560284753323193
 40
2.277330793379872
 40
2.59427550288188
 40
2.801248154399745
 40
3.046711958151978
 40
3.094522847479428
 40
3.143137741923292
 40
3.154572041897182
 40
3.157844605016383
 40
3.157844605016383
 40
3.157844605016383
 40
3.157844605016383
 10
698.2036733253494
 20
645.5604426518132
 30
0.0
 10
698.3091552531663
 20
645.4971978291364
 30
0.0
 10
698.532489046564
 20
645.3679892578379
 30
0.0
 10
698.9912244122201
 20
645.1227521118389
 30
0.0
 10
699.5675245303687
 20
644.8525146641079
 30
0.0
 10
700.1334693264457
 20
644.6327829128863
 30
0.0
 10
700.5257620539691
 20
644.5014431849285
 30
0.0
 10
700.7706676268776
 20
644.4253029968534
 30
0.0
 10
700.9307588288606
 20
644.3786257808006
 30
0.0
 10
701.040012572455
 20
644.3462277338242
 30
0.0
 10
701.0742674190582
 20
644.3352379777784
 30
0.0
 10
701.0939465451533
 20
644.3276319281983
 30
0.0
 10
701.0981471168466
 20
644.3249083744644
 30
0.0
 10
701.0984751636783
 20
644.3238176373013
 30
0.0
  0
SPLINE
  5
DB
330
1F
100
AcDbEntity
  8
BLOCCO_stool_8500-60--2D
100
AcDbSpline
210
0.0
220
0.0
230
1.0
 70
    24
 71
     2
 72
     6
 73
     3
 74
     0
 42
0.0000000001
 43
0.0000000001
 40
0.0
 40
0.0
 40
0.0
 40
155.7181740415822
 40
155.7181740415822
 40
155.7181740415822
 10
701.0984751636783
 20
644.3238176373013
 30
0.0
 10
693.6357284420721
 20
566.8231784084666
 30
0.0
 10
686.1729817204659
 20
489.3225391796317
 30
0.0
  0
SPLINE
  5
DC
330
1F
100
AcDbEntity
  8
BLOCCO_stool_8500-60--2D
100
AcDbSpline
210
0.0
220
0.0
230
1.0
 70
    24
 71
     2
 72
     6
 73
     3
 74
     0
 42
0.0000000001
 43
0.0000000001
 40
286.0494172759177
 40
286.0494172759177
 40
286.0494172759177
 40
286.5446296420719
 40
286.5446296420719
 40
286.5446296420719
 10
686.1729817204659
 20
489.3225391796317
 30
0.0
 10
686.1489657839593
 20
489.0760729263046
 30
0.0
 10
686.1249498474527
 20
488.8296066729774
 30
0.0
  0
SPLINE
  5
DD
330
1F
100
AcDbEntity
  8
BLOCCO_stool_8500-60--2D
100
AcDbSpline
210
0.0
220
0.0
230
1.0
 70
    12
 71
     2
 72
     6
 73
     3
 74
     0
 42
0.0000000001
 43
0.0000000001
 40
-4.424409653805651
 40
-4.424409653805651
 40
-4.424409653805651
 40
0.0
 40
0.0
 40
0.0
 10
686.1249498474527
 20
488.8296066729774
 30
0.0
 41
1.0
 10
685.8637693917117
 20
486.1171439305382
 30
0.0
 41
0.7402181274868563
 10
683.1387612523505
 20
486.1171439305381
 30
0.0
 41
1.0
  0
POLYLINE
  5
DE
330
1F
100
AcDbEntity
  8
BLOCCO_stool_8500-60--2D
100
AcDb2dPolyline
 66
     1
 10
0.0
 20
0.0
 30
0.0
  0
VERTEX
  5
DF
330
DE
100
AcDbEntity
  8
BLOCCO_stool_8500-60--2D
100
AcDbVertex
100
AcDb2dVertex
 10
683.1387612523505
 20
486.1171439305381
 30
0.0
  0
VERTEX
  5
E0
330
DE
100
AcDbEntity
  8
BLOCCO_stool_8500-60--2D
100
AcDbVertex
100
AcDb2dVertex
 10
659.0230956900296
 20
486.1171477311025
 30
0.0
  0
SEQEND
  5
E1
330
DE
100
AcDbEntity
  8
BLOCCO_stool_8500-60--2D
  0
SPLINE
  5
E2
330
1F
100
AcDbEntity
  8
BLOCCO_stool_8500-60--2D
100
AcDbSpline
210
0.0
220
0.0
230
1.0
 70
    12
 71
     2
 72
     8
 73
     5
 74
     0
 42
0.0000000001
 43
0.0000000001
 40
0.0
 40
0.0
 40
0.0
 40
2.497845196680617
 40
2.497845196680617
 40
4.911074843119115
 40
4.911074843119115
 40
4.911074843119115
 10
659.0230956900296
 20
486.1171477311025
 30
0.0
 41
1.0
 10
657.6966449116136
 20
486.1192183742811
 30
0.0
 41
0.9145888815391323
 10
656.8055472757351
 20
487.1017767483518
 30
0.0
 41
1.0
 10
655.9473508823118
 20
488.0480569526798
 30
0.0
 41
0.9174822188824414
 10
656.0348162644493
 20
489.3225391796317
 30
0.0
 41
0.9944093513374648
  0
SPLINE
  5
E3
330
1F
100
AcDbEntity
  8
BLOCCO_stool_8500-60--2D
100
AcDbSpline
210
0.0
220
0.0
230
1.0
 70
    24
 71
     2
 72
     6
 73
     3
 74
     0
 42
0.0000000001
 43
0.0000000001
 40
130.2487180825989
 40
130.2487180825989
 40
130.2487180825989
 40
728.0643210331962
 40
728.0643210331962
 40
728.0643210331962
 10
656.0348162644493
 20
489.3225391796317
 30
0.0
 10
684.6838630301564
 20
786.8542295330514
 30
0.0
 10
713.3329097958635
 20
1084.385919886471
 30
0.0
  0
SPLINE
  5
E4
330
1F
100
AcDbEntity
  8
BLOCCO_stool_8500-60--2D
100
AcDbSpline
210
0.0
220
0.0
230
1.0
 70
    24
 71
     2
 72
     6
 73
     3
 74
     0
 42
0.0000000001
 43
0.0000000001
 40
0.0
 40
0.0
 40
0.0
 40
597.8156048097234
 40
597.8156048097234
 40
597.8156048097234
 10
716.7847668170184
 20
1084.385919531806
 30
0.0
 10
688.1354396257973
 20
786.8542293557189
 30
0.0
 10
659.4861124345761
 20
489.3225391796317
 30
0.0
  0
SPLINE
  5
E5
330
1F
100
AcDbEntity
  8
BLOCCO_stool_8500-60--2D
100
AcDbSpline
210
0.0
220
0.0
230
1.0
 70
    24
 71
     2
 72
     6
 73
     3
 74
     0
 42
0.0000000001
 43
0.0000000001
 40
728.1468480440589
 40
728.1468480440589
 40
728.1468480440589
 40
728.3531932656205
 40
728.3531932656205
 40
728.3531932656205
 10
659.4861124345761
 20
489.3225391796317
 30
0.0
 10
659.4759398424953
 20
489.2198415550849
 30
0.0
 10
659.4657672504146
 20
489.117143930538
 30
0.0
  0
SPLINE
  5
E6
330
1F
100
AcDbEntity
  8
BLOCCO_stool_8500-60--2D
100
AcDbSpline
210
0.0
220
0.0
230
1.0
 70
    24
 71
     2
 72
     6
 73
     3
 74
     0
 42
0.0000000001
 43
0.0000000001
 40
0.0
 40
0.0
 40
0.0
 40
420.7519649110339
 40
420.7519649110339
 40
420.7519649110339
 10
87.82877763435498
 20
1084.385327964592
 30
0.0
 10
102.1194851423129
 20
874.4952860854695
 30
0.0
 10
116.4101926502708
 20
664.6052442063469
 30
0.0
  0
SPLINE
  5
E7
330
1F
100
AcDbEntity
  8
BLOCCO_stool_8500-60--2D
100
AcDbSpline
210
0.0
220
0.0
230
1.0
 70
     8
 71
     3
 72
    13
 73
     9
 74
     0
 42
0.0000000001
 43
0.0000000001
 40
0.0
 40
0.0
 40
0.0
 40
0.0
 40
0.0295339467958451
 40
0.0765191442181671
 40
0.1475185597620148
 40
0.2408805797500551
 40
0.5304256429456924
 40
1.080645483745055
 40
1.080645483745055
 40
1.080645483745055
 40
1.080645483745055
 10
116.4101926502708
 20
664.6052442063469
 30
0.0
 10
116.4110121299472
 20
664.5952505482376
 30
0.0
 10
116.4242338459335
 20
664.5726853165979
 30
0.0
 10
116.4607634514859
 20
664.5395836555987
 30
0.0
 10
116.5181736314598
 20
664.4986222704257
 30
0.0
 10
116.647388324347
 20
664.4198068446712
 30
0.0
 10
116.9210950226652
 20
664.2719169786325
 30
0.0
 10
117.1699175352396
 20
664.143737593806
 30
0.0
 10
117.3329606133911
 20
664.0597233350892
 30
0.0
  0
SPLINE
  5
E8
330
1F
100
AcDbEntity
  8
BLOCCO_stool_8500-60--2D
100
AcDbSpline
210
0.0
220
0.0
230
1.0
 70
     8
 71
     3
 72
    19
 73
    15
 74
     0
 42
0.0000000001
 43
0.0000000001
 40
0.0
 40
0.0
 40
0.0
 40
0.0
 40
1.128758590937058
 40
2.313216050381889
 40
3.520416091360339
 40
4.751888159386187
 40
7.410690249726372
 40
10.29839145240217
 40
13.22106370309857
 40
15.99542914625781
 40
17.38847983477293
 40
18.72688560356367
 40
19.88730500496966
 40
21.11617556224518
 40
21.11617556224518
 40
21.11617556224518
 40
21.11617556224518
 10
117.3329606133911
 20
664.0597233350892
 30
0.0
 10
117.6675384796663
 20
663.8874150876908
 30
0.0
 10
118.3198919305014
 20
663.4712233966161
 30
0.0
 10
119.1947243968852
 20
662.6833513726714
 30
0.0
 10
119.9660226903643
 20
661.7507085276916
 30
0.0
 10
120.8716837429374
 20
660.3085485216763
 30
0.0
 10
121.7148164105747
 20
658.1972488385897
 30
0.0
 10
122.1937964758553
 20
655.4003722425241
 30
0.0
 10
122.1077964067563
 20
652.5259201037697
 30
0.0
 10
121.5684458457335
 20
650.2122300903924
 30
0.0
 10
120.8605690850245
 20
648.5150652215074
 30
0.0
 10
120.2173468855153
 20
647.3856517323579
 30
0.0
 10
119.4690590542632
 20
646.3903571813059
 30
0.0
 10
118.9049707180847
 20
645.8249745920295
 30
0.0
 10
118.5925502714235
 20
645.5599166513691
 30
0.0
  0
SPLINE
  5
E9
330
1F
100
AcDbEntity
  8
BLOCCO_stool_8500-60--2D
100
AcDbSpline
210
0.0
220
0.0
230
1.0
 70
     8
 71
     3
 72
    14
 73
    10
 74
     0
 42
0.0000000001
 43
0.0000000001
 40
0.0
 40
0.0
 40
0.0
 40
0.0
 40
0.2816022377785738
 40
0.508980518690358
 40
0.8726185213663526
 40
1.010984746689983
 40
1.131371133009596
 40
1.220425857837894
 40
1.290472466441155
 40
1.290472466441155
 40
1.290472466441155
 40
1.290472466441155
 10
118.5925502714235
 20
645.5599166513691
 30
0.0
 10
118.5210631161117
 20
645.4991363519659
 30
0.0
 10
118.3925140393103
 20
645.3882461335686
 30
0.0
 10
118.1785511926691
 20
645.191359103911
 30
0.0
 10
118.0066572037531
 20
645.0189340128551
 30
0.0
 10
117.8764793380978
 20
644.8570874613622
 30
0.0
 10
117.8142213369265
 20
644.7590014902798
 30
0.0
 10
117.7778056719698
 20
644.6727069056002
 30
0.0
 10
117.770940307374
 20
644.619443663727
 30
0.0
 10
117.7725462242206
 20
644.5961261942291
 30
0.0
  0
SPLINE
  5
EA
330
1F
100
AcDbEntity
  8
BLOCCO_stool_8500-60--2D
100
AcDbSpline
210
0.0
220
0.0
230
1.0
 70
    24
 71
     2
 72
     6
 73
     3
 74
     0
 42
0.0000000001
 43
0.0000000001
 40
0.0
 40
0.0
 40
0.0
 40
155.632951246451
 40
155.632951246451
 40
155.632951246451
 10
117.7725462242206
 20
644.5961261942291
 30
0.0
 10
123.0585746317362
 20
566.9593326869304
 30
0.0
 10
128.3446030392518
 20
489.3225391796317
 30
0.0
  0
SPLINE
  5
EB
330
1F
100
AcDbEntity
  8
BLOCCO_stool_8500-60--2D
100
AcDbSpline
210
0.0
220
0.0
230
1.0
 70
    24
 71
     2
 72
     6
 73
     3
 74
     0
 42
0.0000000001
 43
0.0000000001
 40
285.6644244349502
 40
285.6644244349502
 40
285.6644244349502
 40
286.0748473179989
 40
286.0748473179989
 40
286.0748473179989
 10
128.3446030392518
 20
489.3225391796317
 30
0.0
 10
128.358542957877
 20
489.1178015815413
 30
0.0
 10
128.3724828765022
 20
488.9130639834509
 30
0.0
  0
SPLINE
  5
EC
330
1F
100
AcDbEntity
  8
BLOCCO_stool_8500-60--2D
100
AcDbSpline
210
0.0
220
0.0
230
1.0
 70
    12
 71
     2
 72
     6
 73
     3
 74
     0
 42
0.0000000001
 43
0.0000000001
 40
0.0
 40
0.0
 40
0.0
 40
4.444392454321006
 40
4.444392454321006
 40
4.444392454321006
 10
128.3724828765022
 20
488.9130639834509
 30
0.0
 41
1.0
 10
128.5588488464113
 20
486.1758679096704
 30
0.0
 41
0.7379746435890853
 10
131.3015224361412
 20
486.117301670307
 30
0.0
 41
1.0
  0
POLYLINE
  5
ED
330
1F
100
AcDbEntity
  8
BLOCCO_stool_8500-60--2D
100
AcDb2dPolyline
 66
     1
 10
0.0
 20
0.0
 30
0.0
  0
VERTEX
  5
EE
330
ED
100
AcDbEntity
  8
BLOCCO_stool_8500-60--2D
100
AcDbVertex
100
AcDb2dVertex
 10
131.3015224361412
 20
486.117301670307
 30
0.0
  0
VERTEX
  5
EF
330
ED
100
AcDbEntity
  8
BLOCCO_stool_8500-60--2D
100
AcDbVertex
100
AcDb2dVertex
 10
165.1282608381057
 20
486.1170822374715
 30
0.0
  0
SEQEND
  5
F0
330
ED
100
AcDbEntity
  8
BLOCCO_stool_8500-60--2D
  0
SPLINE
  5
F1
330
1F
100
AcDbEntity
  8
BLOCCO_stool_8500-60--2D
100
AcDbSpline
210
0.0
220
0.0
230
1.0
 70
    12
 71
     2
 72
     8
 73
     5
 74
     0
 42
0.0000000001
 43
0.0000000001
 40
0.0
 40
0.0
 40
0.0
 40
2.431748359026303
 40
2.431748359026303
 40
4.863496718052606
 40
4.863496718052606
 40
4.863496718052606
 10
165.1282608381057
 20
486.1170822374715
 30
0.0
 41
1.0
 10
166.4151950041035
 20
486.1397306217013
 30
0.0
 41
0.9189876477754037
 10
167.2855781912982
 20
487.0879635067922
 30
0.0
 41
1.0
 10
168.1559613784931
 20
488.0361963918829
 30
0.0
 41
0.9189876477754037
 10
168.0685485758873
 20
489.3203581803114
 30
0.0
 41
1.0
  0
SPLINE
  5
F2
330
1F
100
AcDbEntity
  8
BLOCCO_stool_8500-60--2D
100
AcDbSpline
210
0.0
220
0.0
230
1.0
 70
     8
 71
     5
 72
    12
 73
     6
 74
     0
 42
0.0000000001
 43
0.0000000001
 40
-1.0
 40
-1.0
 40
-1.0
 40
-1.0
 40
-1.0
 40
-1.0
 40
0.0
 40
0.0
 40
0.0
 40
0.0
 40
0.0
 40
0.0
 10
168.0685485758873
 20
489.3203581803114
 30
0.0
 10
168.0685188781659
 20
489.3207944628398
 30
0.0
 10
168.0684891009528
 20
489.321230739957
 30
0.0
 10
168.0684535450942
 20
489.321666615563
 30
0.0
 10
168.0684238401169
 20
489.3221028975973
 30
0.0
 10
168.0683941351395
 20
489.3225391796317
 30
0.0
  0
SPLINE
  5
F3
330
1F
100
AcDbEntity
  8
BLOCCO_stool_8500-60--2D
100
AcDbSpline
210
0.0
220
0.0
230
1.0
 70
    24
 71
     2
 72
     6
 73
     3
 74
     0
 42
0.0000000001
 43
0.0000000001
 40
130.0315797315076
 40
130.0315797315076
 40
130.0315797315076
 40
726.4721328106198
 40
726.4721328106198
 40
726.4721328106198
 10
168.0683941351395
 20
489.3225391796317
 30
0.0
 10
147.8104792736352
 20
786.8539664689071
 30
0.0
 10
127.5525644121308
 20
1084.385393758182
 30
0.0
  0
SPLINE
  5
F4
330
1F
100
AcDbEntity
  8
BLOCCO_stool_8500-60--2D
100
AcDbSpline
210
0.0
220
0.0
230
1.0
 70
    24
 71
     2
 72
     6
 73
     3
 74
     0
 42
0.0000000001
 43
0.0000000001
 40
-596.4405531833193
 40
-596.4405531833193
 40
-596.4405531833193
 40
0.0
 40
0.0
 40
0.0
 10
150.0624505777441
 20
489.3225391796317
 30
0.0
 10
129.8045357118872
 20
786.8539665328296
 30
0.0
 10
109.5466208460302
 20
1084.385393886027
 30
0.0
  0
SPLINE
  5
F5
330
1F
100
AcDbEntity
  8
BLOCCO_stool_8500-60--2D
100
AcDbSpline
210
0.0
220
0.0
230
1.0
 70
    24
 71
     2
 72
     6
 73
     3
 74
     0
 42
0.0000000001
 43
0.0000000001
 40
0.0
 40
0.0
 40
0.0
 40
420.7519649110339
 40
420.7519649110339
 40
420.7519649110339
 10
-87.82874173242452
 20
1084.385327964592
 30
0.0
 10
-102.1194492403824
 20
874.4952860854695
 30
0.0
 10
-116.4101567483403
 20
664.6052442063469
 30
0.0
  0
SPLINE
  5
F6
330
1F
100
AcDbEntity
  8
BLOCCO_stool_8500-60--2D
100
AcDbSpline
210
0.0
220
0.0
230
1.0
 70
     8
 71
     3
 72
    13
 73
     9
 74
     0
 42
0.0000000001
 43
0.0000000001
 40
0.0
 40
0.0
 40
0.0
 40
0.0
 40
0.0295339467958451
 40
0.0765191442181671
 40
0.1475185597620148
 40
0.2408805797500551
 40
0.5304256429456924
 40
1.080645483745055
 40
1.080645483745055
 40
1.080645483745055
 40
1.080645483745055
 10
-116.4101567483403
 20
664.6052442063469
 30
0.0
 10
-116.4109762280168
 20
664.5952505482376
 30
0.0
 10
-116.424197944003
 20
664.5726853165979
 30
0.0
 10
-116.4607275495559
 20
664.5395836555987
 30
0.0
 10
-116.5181377295298
 20
664.4986222704257
 30
0.0
 10
-116.6473524224166
 20
664.4198068446712
 30
0.0
 10
-116.9210591207347
 20
664.2719169786325
 30
0.0
 10
-117.1698816333091
 20
664.143737593806
 30
0.0
 10
-117.3329247114607
 20
664.0597233350892
 30
0.0
  0
SPLINE
  5
F7
330
1F
100
AcDbEntity
  8
BLOCCO_stool_8500-60--2D
100
AcDbSpline
210
0.0
220
0.0
230
1.0
 70
     8
 71
     3
 72
    19
 73
    15
 74
     0
 42
0.0000000001
 43
0.0000000001
 40
0.0
 40
0.0
 40
0.0
 40
0.0
 40
1.128758590937058
 40
2.313216050381889
 40
3.520416091360339
 40
4.751888159386187
 40
7.410690249726372
 40
10.29839145240217
 40
13.22106370309857
 40
15.99542914625781
 40
17.38847983477293
 40
18.72688560356367
 40
19.88730500496966
 40
21.11617556224518
 40
21.11617556224518
 40
21.11617556224518
 40
21.11617556224518
 10
-117.3329247114607
 20
664.0597233350892
 30
0.0
 10
-117.6675025777358
 20
663.8874150876908
 30
0.0
 10
-118.3198560285709
 20
663.4712233966161
 30
0.0
 10
-119.1946884949548
 20
662.6833513726714
 30
0.0
 10
-119.9659867884338
 20
661.7507085276916
 30
0.0
 10
-120.8716478410074
 20
660.3085485216763
 30
0.0
 10
-121.7147805086442
 20
658.1972488385897
 30
0.0
 10
-122.1937605739249
 20
655.4003722425241
 30
0.0
 10
-122.1077605048253
 20
652.5259201037697
 30
0.0
 10
-121.5684099438031
 20
650.2122300903924
 30
0.0
 10
-120.860533183094
 20
648.5150652215074
 30
0.0
 10
-120.2173109835853
 20
647.3856517323579
 30
0.0
 10
-119.4690231523327
 20
646.3903571813059
 30
0.0
 10
-118.9049348161543
 20
645.8249745920295
 30
0.0
 10
-118.592514369493
 20
645.5599166513691
 30
0.0
  0
SPLINE
  5
F8
330
1F
100
AcDbEntity
  8
BLOCCO_stool_8500-60--2D
100
AcDbSpline
210
0.0
220
0.0
230
1.0
 70
     8
 71
     3
 72
    14
 73
    10
 74
     0
 42
0.0000000001
 43
0.0000000001
 40
0.0
 40
0.0
 40
0.0
 40
0.0
 40
0.2816022377785738
 40
0.508980518690358
 40
0.8726185213663526
 40
1.010984746689983
 40
1.131371133009596
 40
1.220425857837894
 40
1.290472466441155
 40
1.290472466441155
 40
1.290472466441155
 40
1.290472466441155
 10
-118.592514369493
 20
645.5599166513691
 30
0.0
 10
-118.5210272141812
 20
645.4991363519659
 30
0.0
 10
-118.3924781373803
 20
645.3882461335686
 30
0.0
 10
-118.1785152907387
 20
645.191359103911
 30
0.0
 10
-118.0066213018222
 20
645.0189340128551
 30
0.0
 10
-117.8764434361674
 20
644.8570874613622
 30
0.0
 10
-117.814185434996
 20
644.7590014902798
 30
0.0
 10
-117.7777697700394
 20
644.6727069056002
 30
0.0
 10
-117.7709044054436
 20
644.619443663727
 30
0.0
 10
-117.7725103222906
 20
644.5961261942291
 30
0.0
  0
SPLINE
  5
F9
330
1F
100
AcDbEntity
  8
BLOCCO_stool_8500-60--2D
100
AcDbSpline
210
0.0
220
0.0
230
1.0
 70
    24
 71
     2
 72
     6
 73
     3
 74
     0
 42
0.0000000001
 43
0.0000000001
 40
0.0
 40
0.0
 40
0.0
 40
155.632951246451
 40
155.632951246451
 40
155.632951246451
 10
-117.7725103222906
 20
644.5961261942291
 30
0.0
 10
-123.0585387298062
 20
566.9593326869304
 30
0.0
 10
-128.3445671373218
 20
489.3225391796317
 30
0.0
  0
SPLINE
  5
FA
330
1F
100
AcDbEntity
  8
BLOCCO_stool_8500-60--2D
100
AcDbSpline
210
0.0
220
0.0
230
1.0
 70
    24
 71
     2
 72
     6
 73
     3
 74
     0
 42
0.0000000001
 43
0.0000000001
 40
285.6644244349502
 40
285.6644244349502
 40
285.6644244349502
 40
286.0748473179989
 40
286.0748473179989
 40
286.0748473179989
 10
-128.3445671373218
 20
489.3225391796317
 30
0.0
 10
-128.3585070559469
 20
489.1178015815413
 30
0.0
 10
-128.372446974572
 20
488.9130639834509
 30
0.0
  0
SPLINE
  5
FB
330
1F
100
AcDbEntity
  8
BLOCCO_stool_8500-60--2D
100
AcDbSpline
210
0.0
220
0.0
230
1.0
 70
    12
 71
     2
 72
     6
 73
     3
 74
     0
 42
0.0000000001
 43
0.0000000001
 40
0.0
 40
0.0
 40
0.0
 40
4.444392454321006
 40
4.444392454321006
 40
4.444392454321006
 10
-128.372446974572
 20
488.9130639834509
 30
0.0
 41
1.0
 10
-128.5588129444807
 20
486.1758679096704
 30
0.0
 41
0.7379746435890853
 10
-131.3014865342105
 20
486.117301670307
 30
0.0
 41
1.0
  0
POLYLINE
  5
FC
330
1F
100
AcDbEntity
  8
BLOCCO_stool_8500-60--2D
100
AcDb2dPolyline
 66
     1
 10
0.0
 20
0.0
 30
0.0
  0
VERTEX
  5
FD
330
FC
100
AcDbEntity
  8
BLOCCO_stool_8500-60--2D
100
AcDbVertex
100
AcDb2dVertex
 10
-131.3014865342105
 20
486.117301670307
 30
0.0
  0
VERTEX
  5
FE
330
FC
100
AcDbEntity
  8
BLOCCO_stool_8500-60--2D
100
AcDbVertex
100
AcDb2dVertex
 10
-165.1282249361751
 20
486.1170822374715
 30
0.0
  0
SEQEND
  5
FF
330
FC
100
AcDbEntity
  8
BLOCCO_stool_8500-60--2D
  0
SPLINE
  5
100
330
1F
100
AcDbEntity
  8
BLOCCO_stool_8500-60--2D
100
AcDbSpline
210
0.0
220
0.0
230
1.0
 70
    12
 71
     2
 72
     8
 73
     5
 74
     0
 42
0.0000000001
 43
0.0000000001
 40
0.0
 40
0.0
 40
0.0
 40
2.431748359026303
 40
2.431748359026303
 40
4.863496718052606
 40
4.863496718052606
 40
4.863496718052606
 10
-165.1282249361751
 20
486.1170822374715
 30
0.0
 41
1.0
 10
-166.4151591021726
 20
486.1397306217013
 30
0.0
 41
0.9189876477754037
 10
-167.2855422893675
 20
487.0879635067922
 30
0.0
 41
1.0
 10
-168.1559254765622
 20
488.0361963918829
 30
0.0
 41
0.9189876477754037
 10
-168.0685126739567
 20
489.3203581803114
 30
0.0
 41
1.0
  0
SPLINE
  5
101
330
1F
100
AcDbEntity
  8
BLOCCO_stool_8500-60--2D
100
AcDbSpline
210
0.0
220
0.0
230
1.0
 70
     8
 71
     5
 72
    12
 73
     6
 74
     0
 42
0.0000000001
 43
0.0000000001
 40
-1.0
 40
-1.0
 40
-1.0
 40
-1.0
 40
-1.0
 40
-1.0
 40
0.0
 40
0.0
 40
0.0
 40
0.0
 40
0.0
 40
0.0
 10
-168.0685126739567
 20
489.3203581803114
 30
0.0
 10
-168.0684829762357
 20
489.3207944628398
 30
0.0
 10
-168.0684531990217
 20
489.321230739957
 30
0.0
 10
-168.068417643164
 20
489.321666615563
 30
0.0
 10
-168.0683879381867
 20
489.3221028975973
 30
0.0
 10
-168.0683582332093
 20
489.3225391796317
 30
0.0
  0
SPLINE
  5
102
330
1F
100
AcDbEntity
  8
BLOCCO_stool_8500-60--2D
100
AcDbSpline
210
0.0
220
0.0
230
1.0
 70
    24
 71
     2
 72
     6
 73
     3
 74
     0
 42
0.0000000001
 43
0.0000000001
 40
130.0315797315076
 40
130.0315797315076
 40
130.0315797315076
 40
726.4721328106198
 40
726.4721328106198
 40
726.4721328106198
 10
-168.0683582332093
 20
489.3225391796317
 30
0.0
 10
-147.8104433717046
 20
786.8539664689071
 30
0.0
 10
-127.5525285101998
 20
1084.385393758182
 30
0.0
  0
SPLINE
  5
103
330
1F
100
AcDbEntity
  8
BLOCCO_stool_8500-60--2D
100
AcDbSpline
210
0.0
220
0.0
230
1.0
 70
    24
 71
     2
 72
     6
 73
     3
 74
     0
 42
0.0000000001
 43
0.0000000001
 40
-596.4405531833193
 40
-596.4405531833193
 40
-596.4405531833193
 40
0.0
 40
0.0
 40
0.0
 10
-150.0624146758132
 20
489.3225391796317
 30
0.0
 10
-129.8044998099562
 20
786.8539665328296
 30
0.0
 10
-109.5465849440993
 20
1084.385393886027
 30
0.0
  0
ENDSEC
  0
SECTION
  2
OBJECTS
  0
DICTIONARY
  5
C
330
0
100
AcDbDictionary
281
     1
  3
ACAD_COLOR
350
10B
  3
ACAD_GROUP
350
D
  3
ACAD_LAYOUT
350
1A
  3
ACAD_MATERIAL
350
107
  3
ACAD_MLEADERSTYLE
350
105
  3
ACAD_MLINESTYLE
350
17
  3
ACAD_PLOTSETTINGS
350
19
  3
ACAD_PLOTSTYLENAME
350
E
  3
ACAD_TABLESTYLE
350
104
  3
ACAD_VISUALSTYLE
350
2A
  3
AcDbVariableDictionary
350
125
  0
DICTIONARY
  5
111
330
8
100
AcDbDictionary
280
     1
281
     1
  3
ACAD_XREC_ROUNDTRIP
360
112
  0
DICTIONARY
  5
113
330
10
100
AcDbDictionary
280
     1
281
     1
  3
ACAD_XREC_ROUNDTRIP
360
114
  0
DICTIONARY
  5
11B
330
3B
100
AcDbDictionary
280
     1
281
     1
  3
ACAD_XREC_ROUNDTRIP
360
11C
  0
DICTIONARY
  5
10B
102
{ACAD_REACTORS
330
C
102
}
330
C
100
AcDbDictionary
281
     1
  0
DICTIONARY
  5
D
102
{ACAD_REACTORS
330
C
102
}
330
C
100
AcDbDictionary
281
     1
  0
DICTIONARY
  5
1A
102
{ACAD_REACTORS
330
C
102
}
330
C
100
AcDbDictionary
281
     1
  3
Layout1
350
1E
  3
Layout2
350
26
  3
Model
350
22
  0
DICTIONARY
  5
107
102
{ACAD_REACTORS
330
C
102
}
330
C
100
AcDbDictionary
281
     1
  3
ByBlock
350
109
  3
ByLayer
350
108
  3
Global
350
10A
  0
DICTIONARY
  5
105
102
{ACAD_REACTORS
330
C
102
}
330
C
100
AcDbDictionary
281
     1
  0
DICTIONARY
  5
17
102
{ACAD_REACTORS
330
C
102
}
330
C
100
AcDbDictionary
281
     1
  3
Standard
350
18
  0
DICTIONARY
  5
19
102
{ACAD_REACTORS
330
C
102
}
330
C
100
AcDbDictionary
281
     1
  0
ACDBDICTIONARYWDFLT
  5
E
102
{ACAD_REACTORS
330
C
102
}
330
C
100
AcDbDictionary
281
     1
  3
Normal
350
F
100
AcDbDictionaryWithDefault
340
F
  0
DICTIONARY
  5
104
102
{ACAD_REACTORS
330
C
102
}
330
C
100
AcDbDictionary
281
     1
  3
Standard
350
10C
  0
DICTIONARY
  5
2A
102
{ACAD_REACTORS
330
C
102
}
330
C
100
AcDbDictionary
281
     1
  3
2dWireframe
350
2F
  3
3D Hidden
350
31
  3
3dWireframe
350
30
  3
Basic
350
32
  3
Brighten
350
36
  3
ColorChange
350
3A
  3
Conceptual
350
34
  3
Dim
350
35
  3
Facepattern
350
39
  3
Flat
350
2B
  3
FlatWithEdges
350
2C
  3
Gouraud
350
2D
  3
GouraudWithEdges
350
2E
  3
Linepattern
350
38
  3
Realistic
350
33
  3
Thicken
350
37
  0
DICTIONARY
  5
125
102
{ACAD_REACTORS
330
C
102
}
330
C
100
AcDbDictionary
281
     1
  3
CTABLESTYLE
350
126
  3
DIMASSOC
350
12A
  3
HIDETEXT
350
129
  3
INDEXCTL
350
128
  3
SORTENTS
350
127
  0
XRECORD
  5
112
102
{ACAD_REACTORS
330
111
102
}
330
111
100
AcDbXrecord
280
     1
102
VTR_0.000_0.000_1.000_1.000_VISUALSTYLE
340
2F
102
VTR_0.000_0.000_1.000_1.000_GRIDDISPLAY
 70
     3
102
VTR_0.000_0.000_1.000_1.000_GRIDMAJOR
 70
     5
102
VTR_0.000_0.000_1.000_1.000_DEFAULTLIGHTING
280
     1
102
VTR_0.000_0.000_1.000_1.000_DEFAULTLIGHTINGTYPE
 70
     1
102
VTR_0.000_0.000_1.000_1.000_BRIGHTNESS
141
0.0
102
VTR_0.000_0.000_1.000_1.000_CONTRAST
142
0.0
  0
XRECORD
  5
114
102
{ACAD_REACTORS
330
113
102
}
330
113
100
AcDbXrecord
280
     1
102
MATERIAL
340
10A
  0
XRECORD
  5
11C
102
{ACAD_REACTORS
330
11B
102
}
330
11B
100
AcDbXrecord
280
     1
102
MATERIAL
340
10A
  0
LAYOUT
  5
1E
102
{ACAD_REACTORS
330
1A
102
}
330
1A
100
AcDbPlotSettings
  1

  2
none_device
  4

  6

 40
0.0
 41
0.0
 42
0.0
 43
0.0
 44
0.0
 45
0.0
 46
0.0
 47
0.0
 48
0.0
 49
0.0
140
0.0
141
0.0
142
1.0
143
1.0
 70
   688
 72
     0
 73
     0
 74
     5
  7

 75
    16
147
1.0
 76
     0
 77
     2
 78
   300
148
0.0
149
0.0
100
AcDbLayout
  1
Layout1
 70
     1
 71
     1
 10
0.0
 20
0.0
 11
12.0
 21
9.0
 12
0.0
 22
0.0
 32
0.0
 14
1.000000000000000E+20
 24
1.000000000000000E+20
 34
1.000000000000000E+20
 15
-1.000000000000000E+20
 25
-1.000000000000000E+20
 35
-1.000000000000000E+20
146
0.0
 13
0.0
 23
0.0
 33
0.0
 16
1.0
 26
0.0
 36
0.0
 17
0.0
 27
1.0
 37
0.0
 76
     0
330
1B
  0
LAYOUT
  5
26
102
{ACAD_REACTORS
330
1A
102
}
330
1A
100
AcDbPlotSettings
  1

  2
none_device
  4

  6

 40
0.0
 41
0.0
 42
0.0
 43
0.0
 44
0.0
 45
0.0
 46
0.0
 47
0.0
 48
0.0
 49
0.0
140
0.0
141
0.0
142
1.0
143
1.0
 70
   688
 72
     0
 73
     0
 74
     5
  7

 75
    16
147
1.0
 76
     0
 77
     2
 78
   300
148
0.0
149
0.0
100
AcDbLayout
  1
Layout2
 70
     1
 71
     2
 10
0.0
 20
0.0
 11
0.0
 21
0.0
 12
0.0
 22
0.0
 32
0.0
 14
0.0
 24
0.0
 34
0.0
 15
0.0
 25
0.0
 35
0.0
146
0.0
 13
0.0
 23
0.0
 33
0.0
 16
1.0
 26
0.0
 36
0.0
 17
0.0
 27
1.0
 37
0.0
 76
     0
330
23
  0
LAYOUT
  5
22
102
{ACAD_REACTORS
330
1A
102
}
330
1A
100
AcDbPlotSettings
  1

  2
none_device
  4

  6

 40
0.0
 41
0.0
 42
0.0
 43
0.0
 44
0.0
 45
0.0
 46
0.0
 47
0.0
 48
0.0
 49
0.0
140
0.0
141
0.0
142
1.0
143
1.0
 70
  1712
 72
     0
 73
     0
 74
     0
  7

 75
     0
147
1.0
 76
     0
 77
     2
 78
   300
148
0.0
149
0.0
100
AcDbLayout
  1
Model
 70
     1
 71
     0
 10
0.0
 20
0.0
 11
12.0
 21
9.0
 12
0.0
 22
0.0
 32
0.0
 14
-216.0474319856553
 24
-216.0474332580386
 34
0.0
 15
1105.807713269181
 25
1114.117187203058
 35
0.0
146
0.0
 13
0.0
 23
0.0
 33
0.0
 16
1.0
 26
0.0
 36
0.0
 17
0.0
 27
1.0
 37
0.0
 76
     0
330
1F
331
29
  0
MATERIAL
  5
109
102
{ACAD_XDICTIONARY
360
11F
102
}
102
{ACAD_REACTORS
330
107
102
}
330
107
100
AcDbMaterial
  1
ByBlock
  0
MATERIAL
  5
108
102
{ACAD_XDICTIONARY
360
11D
102
}
102
{ACAD_REACTORS
330
107
102
}
330
107
100
AcDbMaterial
  1
ByLayer
  0
MATERIAL
  5
10A
102
{ACAD_XDICTIONARY
360
121
102
}
102
{ACAD_REACTORS
330
107
102
}
330
107
100
AcDbMaterial
  1
Global
  0
MLINESTYLE
  5
18
102
{ACAD_REACTORS
330
17
102
}
330
17
100
AcDbMlineStyle
  2
STANDARD
 70
     0
  3

 62
   256
 51
90.0
 52
90.0
 71
     2
 49
0.5
 62
   256
  6
BYLAYER
 49
-0.5
 62
   256
  6
BYLAYER
  0
ACDBPLACEHOLDER
  5
F
102
{ACAD_REACTORS
330
E
102
}
330
E
  0
ACAD_PROXY_OBJECT
  5
10C
102
{ACAD_XDICTIONARY
360
123
102
}
102
{ACAD_REACTORS
330
104
102
}
330
104
100
AcDbProxyObject
 90
      499
 91
      503
 95
   983063
 70
     0
 93
     1849
310
4254DD185B99185C990028B81E85EB51B8AE3F2E07A17AD46E2B8FC02B5E8DC0F42B1CFD028000000C1008070000C3001FDFF8000000C1003FBFF000000182007F7FE00000030400FEFFC00000060801FDFF8000000C1003FBFF00000018200000000000000681FA0B0000001820100E000186003FBFF000000182007F7FE0
310
0000030400FEFFC00000060801FDFF8000000C1003FBFF000000182007F7FE000000304000AD7A3703D0AC73F4160000003040201C00030C007F7FE00000030400FEFFC00000060801FDFF8000000C1003FBFF000000182007F7FE00000030400FEFFC000000608000
340
11
340
11
340
11
 94
        0
  0
ACAD_PROXY_OBJECT
  5
2F
102
{ACAD_REACTORS
330
2A
102
}
330
2A
100
AcDbProxyObject
 90
      499
 91
      501
 95
   983063
 70
     0
 93
      444
310
430C9915DA5C99599C985B59401049028333333333333E3BF0000000000000FB0107901411070040501600405405064090741402480A0340
 94
        0
1001
ACAD
1000
AcDbSavedByObjectVersion
1070
     0
  0
ACAD_PROXY_OBJECT
  5
31
102
{ACAD_REACTORS
330
2A
102
}
330
2A
100
AcDbProxyObject
 90
      499
 91
      501
 95
   983063
 70
     0
 93
      508
310
428CD108121A5919195B8010640502408333333333333E3BF0000000000000FB01079024090700405020000000000001110200405405064090740C02480A0340
 94
        0
1001
ACAD
1000
AcDbSavedByObjectVersion
1070
     0
  0
ACAD_PROXY_OBJECT
  5
30
102
{ACAD_REACTORS
330
2A
102
}
330
2A
100
AcDbProxyObject
 90
      499
 91
      501
 95
   983063
 70
     0
 93
      444
310
430CD915DA5C99599C985B59401059028333333333333E3BF0000000000000FB0107901411070040501600405405064090741402480A0340
 94
        0
1001
ACAD
1000
AcDbSavedByObjectVersion
1070
     0
  0
ACAD_PROXY_OBJECT
  5
32
102
{ACAD_REACTORS
330
2A
102
}
330
2A
100
AcDbProxyObject
 90
      499
 91
      501
 95
   983063
 70
     0
 93
      396
310
4190985CDA58C0107406404333333333333E3BF0000000000000FB0107A41107004050150841D405064090741402480A0354
 94
        0
1001
ACAD
1000
AcDbSavedByObjectVersion
1070
     0
  0
ACAD_PROXY_OBJECT
  5
36
102
{ACAD_REACTORS
330
2A
102
}
330
2A
100
AcDbProxyObject
 90
      499
 91
      501
 95
   983063
 70
     0
 93
      436
310
42509C9A59DA1D195B8010C409028333333333333E3BF0000000000000FB010790141107004050150841D405064090741402480A029956
 94
        0
1001
ACAD
1000
AcDbSavedByObjectVersion
1070
     0
  0
ACAD_PROXY_OBJECT
  5
3A
102
{ACAD_REACTORS
330
2A
102
}
330
2A
100
AcDbProxyObject
 90
      499
 91
      501
 95
   983063
 70
     0
 93
      460
310
4310DBDB1BDC90DA185B99D9401104090240C333333333333E3BF0000000000000FB0108901411070040501508421405064090741402480A0354
 94
        0
1001
ACAD
1000
AcDbSavedByObjectVersion
1070
     0
  0
ACAD_PROXY_OBJECT
  5
34
102
{ACAD_REACTORS
330
2A
102
}
330
2A
100
AcDbProxyObject
 90
      499
 91
      501
 95
   983063
 70
     0
 93
      508
310
42D0DBDB98D95C1D1D585B0010940D028333333333333E3BF0000000000000FB0107902409070040501000000000000111010841D405064090740C02480A0340
 94
        0
1001
ACAD
1000
AcDbSavedByObjectVersion
1070
     0
  0
ACAD_PROXY_OBJECT
  5
35
102
{ACAD_REACTORS
330
2A
102
}
330
2A
100
AcDbProxyObject
 90
      499
 91
      501
 95
   983063
 70
     0
 93
      420
310
41111A5B4010B409028333333333333E3BF0000000000000FB010790141107004050150841D405064090741402480A02677FFFFFDB
 94
        0
1001
ACAD
1000
AcDbSavedByObjectVersion
1070
     0
  0
ACAD_PROXY_OBJECT
  5
39
102
{ACAD_REACTORS
330
2A
102
}
330
2A
100
AcDbProxyObject
 90
      499
 91
      501
 95
   983063
 70
     0
 93
      452
310
43119858D95C185D1D195C9B8010F409028333333333333E3BF0000000000000FB010790141107004050150841D405064090741402480A0350
 94
        0
1001
ACAD
1000
AcDbSavedByObjectVersion
1070
     0
  0
ACAD_PROXY_OBJECT
  5
2B
102
{ACAD_REACTORS
330
2A
102
}
330
2A
100
AcDbProxyObject
 90
      499
 91
      501
 95
   983063
 70
     0
 93
      396
310
41519B185D00240901404333333333333E3BF0000000000000F9010740A41107004050150841D405064090741402480A1B50
 94
        0
1001
ACAD
1000
AcDbSavedByObjectVersion
1070
     0
  0
ACAD_PROXY_OBJECT
  5
2C
102
{ACAD_REACTORS
330
2A
102
}
330
2A
100
AcDbProxyObject
 90
      499
 91
      501
 95
   983063
 70
     0
 93
      484
310
43919B185D15DA5D1A115919D95CC010140901404333333333333E3BF0000000000000F9010740901411070040501600405405064090741402480A1B50
 94
        0
1001
ACAD
1000
AcDbSavedByObjectVersion
1070
     0
  0
ACAD_PROXY_OBJECT
  5
2D
102
{ACAD_REACTORS
330
2A
102
}
330
2A
100
AcDbProxyObject
 90
      499
 91
      501
 95
   983063
 70
     0
 93
      420
310
4211DBDD5C985D590010240902404333333333333E3BF0000000000000F9010740A411070040501641D405064090741402480A1B50
 94
        0
1001
ACAD
1000
AcDbSavedByObjectVersion
1070
     0
  0
ACAD_PROXY_OBJECT
  5
2E
102
{ACAD_REACTORS
330
2A
102
}
330
2A
100
AcDbProxyObject
 90
      499
 91
      501
 95
   983063
 70
     0
 93
      508
310
4451DBDD5C985D5915DA5D1A115919D95CC010340902404333333333333E3BF0000000000000F9010740901411070040501600405405064090741402480A1B50
 94
        0
1001
ACAD
1000
AcDbSavedByObjectVersion
1070
     0
  0
ACAD_PROXY_OBJECT
  5
38
102
{ACAD_REACTORS
330
2A
102
}
330
2A
100
AcDbProxyObject
 90
      499
 91
      501
 95
   983063
 70
     0
 93
      452
310
43131A5B995C185D1D195C9B8010E409028333333333333E3BF0000000000000FB010790141107004050750841D405064090741402483A0350
 94
        0
1001
ACAD
1000
AcDbSavedByObjectVersion
1070
     0
  0
ACAD_PROXY_OBJECT
  5
33
102
{ACAD_REACTORS
330
2A
102
}
330
2A
100
AcDbProxyObject
 90
      499
 91
      501
 95
   983063
 70
     0
 93
      428
310
429499585B1A5CDD1A58C0108409028333333333333E3BF0000000000000FB01079019070040501508421405064090741402480A1B45
 94
        0
1001
ACAD
1000
AcDbSavedByObjectVersion
1070
     0
  0
ACAD_PROXY_OBJECT
  5
37
102
{ACAD_REACTORS
330
2A
102
}
330
2A
100
AcDbProxyObject
 90
      499
 91
      501
 95
   983063
 70
     0
 93
      420
310
42151A1A58DAD95B8010D409028333333333333E3BF0000000000000FB010790141107004050150C41D405064090741402480A035B
 94
        0
1001
ACAD
1000
AcDbSavedByObjectVersion
1070
     0
  0
DICTIONARYVAR
  5
126
102
{ACAD_REACTORS
330
125
102
}
330
125
100
DictionaryVariables
280
     0
  1
STANDARD
  0
DICTIONARYVAR
  5
12A
102
{ACAD_REACTORS
330
125
102
}
330
125
100
DictionaryVariables
280
     0
  1
2
  0
DICTIONARYVAR
  5
129
102
{ACAD_REACTORS
330
125
102
}
330
125
100
DictionaryVariables
280
     0
  1
1
  0
DICTIONARYVAR
  5
128
102
{ACAD_REACTORS
330
125
102
}
330
125
100
DictionaryVariables
280
     0
  1
0
  0
DICTIONARYVAR
  5
127
102
{ACAD_REACTORS
330
125
102
}
330
125
100
DictionaryVariables
280
     0
  1
127
  0
DICTIONARY
  5
11F
330
109
100
AcDbDictionary
280
     1
281
     1
  3
ACAD_XREC_ROUNDTRIP
360
120
  0
DICTIONARY
  5
11D
330
108
100
AcDbDictionary
280
     1
281
     1
  3
ACAD_XREC_ROUNDTRIP
360
11E
  0
DICTIONARY
  5
121
330
10A
100
AcDbDictionary
280
     1
281
     1
  3
ACAD_XREC_ROUNDTRIP
360
122
  0
DICTIONARY
  5
123
330
10C
100
AcDbDictionary
280
     1
281
     1
  3
ACAD_XREC_ROUNDTRIP
360
124
  0
XRECORD
  5
120
102
{ACAD_REACTORS
330
11F
102
}
330
11F
100
AcDbXrecord
280
     1
102
MATERIAL
148
0.0
149
0.0
149
0.0
 93
        0
 94
       63
282
     0
 72
     1
 77
     1
171
     1
175
     1
179
     1
273
     0
  0
XRECORD
  5
11E
102
{ACAD_REACTORS
330
11D
102
}
330
11D
100
AcDbXrecord
280
     1
102
MATERIAL
148
0.0
149
0.0
149
0.0
 93
        0
 94
       63
282
     0
 72
     1
 77
     1
171
     1
175
     1
179
     1
273
     0
  0
XRECORD
  5
122
102
{ACAD_REACTORS
330
121
102
}
330
121
100
AcDbXrecord
280
     1
102
MATERIAL
148
0.0
149
0.0
149
0.0
 93
        0
 94
       63
282
     0
 72
     1
 77
     1
171
     1
175
     1
179
     1
273
     0
  0
XRECORD
  5
124
102
{ACAD_REACTORS
330
123
102
}
330
123
100
AcDbXrecord
280
     1
102
ACAD_ROUNDTRIP_PRE2007_TABLESTYLE
 90
      512
 91
        0
  1

 92
      512
 93
        0
  2

 94
      512
 95
        0
  3

  0
ENDSEC
  0
EOF
