  0
SECTION
  2
HEADER
  9
$ACADVER
  1
AC1018
  9
$ACADMAINTVER
 70
     0
  9
$DWGCODEPAGE
  3
ANSI_1252
  9
$INSBASE
 10
0.0
 20
0.0
 30
0.0
  9
$EXTMIN
 10
-350.0004555227408
 20
-350.0
 30
0.0
  9
$EXTMAX
 10
2529.770117481649
 20
1227.676498807622
 30
0.0
  9
$LIMMIN
 10
0.0
 20
0.0
  9
$LIMMAX
 10
12.0
 20
9.0
  9
$ORTHOMODE
 70
     0
  9
$REGENMODE
 70
     1
  9
$FILLMODE
 70
     1
  9
$QTEXTMODE
 70
     0
  9
$MIRRTEXT
 70
     1
  9
$LTSCALE
 40
1.0
  9
$ATTMODE
 70
     1
  9
$TEXTSIZE
 40
0.2
  9
$TRACEWID
 40
0.05
  9
$TEXTSTYLE
  7
Standard
  9
$CLAYER
  8
Miura_Table_9590-51_2D
  9
$CELTYPE
  6
ByLayer
  9
$CECOLOR
 62
   256
  9
$CELTSCALE
 40
1.0
  9
$DISPSILH
 70
     0
  9
$DIMSCALE
 40
1.0
  9
$DIMASZ
 40
0.18
  9
$DIMEXO
 40
0.0625
  9
$DIMDLI
 40
0.38
  9
$DIMRND
 40
0.0
  9
$DIMDLE
 40
0.0
  9
$DIMEXE
 40
0.18
  9
$DIMTP
 40
0.0
  9
$DIMTM
 40
0.0
  9
$DIMTXT
 40
0.18
  9
$DIMCEN
 40
0.09
  9
$DIMTSZ
 40
0.0
  9
$DIMTOL
 70
     0
  9
$DIMLIM
 70
     0
  9
$DIMTIH
 70
     1
  9
$DIMTOH
 70
     1
  9
$DIMSE1
 70
     0
  9
$DIMSE2
 70
     0
  9
$DIMTAD
 70
     0
  9
$DIMZIN
 70
     0
  9
$DIMBLK
  1

  9
$DIMASO
 70
     1
  9
$DIMSHO
 70
     1
  9
$DIMPOST
  1

  9
$DIMAPOST
  1

  9
$DIMALT
 70
     0
  9
$DIMALTD
 70
     2
  9
$DIMALTF
 40
25.4
  9
$DIMLFAC
 40
1.0
  9
$DIMTOFL
 70
     0
  9
$DIMTVP
 40
0.0
  9
$DIMTIX
 70
     0
  9
$DIMSOXD
 70
     0
  9
$DIMSAH
 70
     0
  9
$DIMBLK1
  1

  9
$DIMBLK2
  1

  9
$DIMSTYLE
  2
Standard
  9
$DIMCLRD
 70
     0
  9
$DIMCLRE
 70
     0
  9
$DIMCLRT
 70
     0
  9
$DIMTFAC
 40
1.0
  9
$DIMGAP
 40
0.09
  9
$DIMJUST
 70
     0
  9
$DIMSD1
 70
     0
  9
$DIMSD2
 70
     0
  9
$DIMTOLJ
 70
     1
  9
$DIMTZIN
 70
     0
  9
$DIMALTZ
 70
     0
  9
$DIMALTTZ
 70
     0
  9
$DIMUPT
 70
     0
  9
$DIMDEC
 70
     4
  9
$DIMTDEC
 70
     4
  9
$DIMALTU
 70
     2
  9
$DIMALTTD
 70
     2
  9
$DIMTXSTY
  7
Standard
  9
$DIMAUNIT
 70
     0
  9
$DIMADEC
 70
     0
  9
$DIMALTRND
 40
0.0
  9
$DIMAZIN
 70
     0
  9
$DIMDSEP
 70
    46
  9
$DIMATFIT
 70
     3
  9
$DIMFRAC
 70
     0
  9
$DIMLDRBLK
  1

  9
$DIMLUNIT
 70
     2
  9
$DIMLWD
 70
    -2
  9
$DIMLWE
 70
    -2
  9
$DIMTMOVE
 70
     2
  9
$LUNITS
 70
     2
  9
$LUPREC
 70
     3
  9
$SKETCHINC
 40
0.1
  9
$FILLETRAD
 40
0.5
  9
$AUNITS
 70
     0
  9
$AUPREC
 70
     0
  9
$MENU
  1
.
  9
$ELEVATION
 40
0.0
  9
$PELEVATION
 40
0.0
  9
$THICKNESS
 40
0.0
  9
$LIMCHECK
 70
     0
  9
$CHAMFERA
 40
0.5
  9
$CHAMFERB
 40
0.5
  9
$CHAMFERC
 40
1.0
  9
$CHAMFERD
 40
0.0
  9
$SKPOLY
 70
     0
  9
$TDCREATE
 40
2457213.739749121
  9
$TDUCREATE
 40
2457213.656415787
  9
$TDUPDATE
 40
2457213.739749132
  9
$TDUUPDATE
 40
2457213.656415799
  9
$TDINDWG
 40
0.0000000116
  9
$TDUSRTIMER
 40
0.0000000116
  9
$USRTIMER
 70
     1
  9
$ANGBASE
 50
0.0
  9
$ANGDIR
 70
     0
  9
$PDMODE
 70
     0
  9
$PDSIZE
 40
0.0
  9
$PLINEWID
 40
0.0
  9
$SPLFRAME
 70
     0
  9
$SPLINETYPE
 70
     6
  9
$SPLINESEGS
 70
     8
  9
$HANDSEED
  5
18A
  9
$SURFTAB1
 70
     6
  9
$SURFTAB2
 70
     6
  9
$SURFTYPE
 70
     6
  9
$SURFU
 70
     6
  9
$SURFV
 70
     6
  9
$UCSBASE
  2

  9
$UCSNAME
  2

  9
$UCSORG
 10
0.0
 20
0.0
 30
0.0
  9
$UCSXDIR
 10
1.0
 20
0.0
 30
0.0
  9
$UCSYDIR
 10
0.0
 20
1.0
 30
0.0
  9
$UCSORTHOREF
  2

  9
$UCSORTHOVIEW
 70
     0
  9
$UCSORGTOP
 10
0.0
 20
0.0
 30
0.0
  9
$UCSORGBOTTOM
 10
0.0
 20
0.0
 30
0.0
  9
$UCSORGLEFT
 10
0.0
 20
0.0
 30
0.0
  9
$UCSORGRIGHT
 10
0.0
 20
0.0
 30
0.0
  9
$UCSORGFRONT
 10
0.0
 20
0.0
 30
0.0
  9
$UCSORGBACK
 10
0.0
 20
0.0
 30
0.0
  9
$PUCSBASE
  2

  9
$PUCSNAME
  2

  9
$PUCSORG
 10
0.0
 20
0.0
 30
0.0
  9
$PUCSXDIR
 10
1.0
 20
0.0
 30
0.0
  9
$PUCSYDIR
 10
0.0
 20
1.0
 30
0.0
  9
$PUCSORTHOREF
  2

  9
$PUCSORTHOVIEW
 70
     0
  9
$PUCSORGTOP
 10
0.0
 20
0.0
 30
0.0
  9
$PUCSORGBOTTOM
 10
0.0
 20
0.0
 30
0.0
  9
$PUCSORGLEFT
 10
0.0
 20
0.0
 30
0.0
  9
$PUCSORGRIGHT
 10
0.0
 20
0.0
 30
0.0
  9
$PUCSORGFRONT
 10
0.0
 20
0.0
 30
0.0
  9
$PUCSORGBACK
 10
0.0
 20
0.0
 30
0.0
  9
$USERI1
 70
     0
  9
$USERI2
 70
     0
  9
$USERI3
 70
     0
  9
$USERI4
 70
     0
  9
$USERI5
 70
     0
  9
$USERR1
 40
0.0
  9
$USERR2
 40
0.0
  9
$USERR3
 40
0.0
  9
$USERR4
 40
0.0
  9
$USERR5
 40
0.0
  9
$WORLDVIEW
 70
     1
  9
$SHADEDGE
 70
     3
  9
$SHADEDIF
 70
    70
  9
$TILEMODE
 70
     1
  9
$MAXACTVP
 70
    64
  9
$PINSBASE
 10
0.0
 20
0.0
 30
0.0
  9
$PLIMCHECK
 70
     0
  9
$PEXTMIN
 10
1.000000000000000E+20
 20
1.000000000000000E+20
 30
1.000000000000000E+20
  9
$PEXTMAX
 10
-1.000000000000000E+20
 20
-1.000000000000000E+20
 30
-1.000000000000000E+20
  9
$PLIMMIN
 10
0.0
 20
0.0
  9
$PLIMMAX
 10
12.0
 20
9.0
  9
$UNITMODE
 70
     0
  9
$VISRETAIN
 70
     1
  9
$PLINEGEN
 70
     0
  9
$PSLTSCALE
 70
     1
  9
$TREEDEPTH
 70
  3020
  9
$CMLSTYLE
  2
Standard
  9
$CMLJUST
 70
     0
  9
$CMLSCALE
 40
1.0
  9
$PROXYGRAPHICS
 70
     1
  9
$MEASUREMENT
 70
     0
  9
$CELWEIGHT
370
    -1
  9
$ENDCAPS
280
     0
  9
$JOINSTYLE
280
     0
  9
$LWDISPLAY
290
     0
  9
$INSUNITS
 70
     4
  9
$HYPERLINKBASE
  1

  9
$STYLESHEET
  1

  9
$XEDIT
290
     1
  9
$CEPSNTYPE
380
     0
  9
$PSTYLEMODE
290
     1
  9
$FINGERPRINTGUID
  2
{754B9356-F2F5-4E00-A933-C09977D4DD17}
  9
$VERSIONGUID
  2
{FAEB1C32-E019-11D5-929B-00C0DF256EC4}
  9
$EXTNAMES
290
     1
  9
$PSVPSCALE
 40
0.0
  9
$OLESTARTUP
290
     0
  9
$SORTENTS
280
   127
  9
$INDEXCTL
280
     0
  9
$HIDETEXT
280
     1
  9
$XCLIPFRAME
290
     0
  9
$HALOGAP
280
     0
  9
$OBSCOLOR
 70
   257
  9
$OBSLTYPE
280
     0
  9
$INTERSECTIONDISPLAY
280
     0
  9
$INTERSECTIONCOLOR
 70
   257
  9
$DIMASSOC
280
     2
  9
$PROJECTNAME
  1

  0
ENDSEC
  0
SECTION
  2
CLASSES
  0
CLASS
  1
ACDBDICTIONARYWDFLT
  2
AcDbDictionaryWithDefault
  3
ObjectDBX Classes
 90
        0
 91
        4
280
     0
281
     0
  0
CLASS
  1
VISUALSTYLE
  2
AcDbVisualStyle
  3
ObjectDBX Classes
 90
     4095
 91
        4
280
     0
281
     0
  0
ENDSEC
  0
SECTION
  2
TABLES
  0
TABLE
  2
VPORT
  5
8
330
0
100
AcDbSymbolTable
 70
     1
  0
VPORT
  5
29
330
8
100
AcDbSymbolTableRecord
100
AcDbViewportTableRecord
  2
*Active
 70
     0
 10
0.0
 20
0.0
 11
1.0
 21
1.0
 12
1089.884830979454
 22
438.8382494038111
 13
0.0
 23
0.0
 14
0.5
 24
0.5
 15
0.5
 25
0.5
 16
0.0
 26
0.0
 36
1.0
 17
0.0
 27
0.0
 37
0.0
 40
1609.230028783775
 41
1.825323870375749
 42
50.0
 43
0.0
 44
0.0
 50
0.0
 51
0.0
 71
     0
 72
   100
 73
     1
 74
     3
 75
     0
 76
     0
 77
     0
 78
     0
281
     0
 65
     1
110
0.0
120
0.0
130
0.0
111
1.0
121
0.0
131
0.0
112
0.0
122
1.0
132
0.0
 79
     0
146
0.0
  0
ENDTAB
  0
TABLE
  2
LTYPE
  5
5
330
0
100
AcDbSymbolTable
 70
     1
  0
LTYPE
  5
14
330
5
100
AcDbSymbolTableRecord
100
AcDbLinetypeTableRecord
  2
ByBlock
 70
     0
  3

 72
    65
 73
     0
 40
0.0
  0
LTYPE
  5
15
330
5
100
AcDbSymbolTableRecord
100
AcDbLinetypeTableRecord
  2
ByLayer
 70
     0
  3

 72
    65
 73
     0
 40
0.0
  0
LTYPE
  5
16
330
5
100
AcDbSymbolTableRecord
100
AcDbLinetypeTableRecord
  2
Continuous
 70
     0
  3
Solid line
 72
    65
 73
     0
 40
0.0
  0
ENDTAB
  0
TABLE
  2
LAYER
  5
2
330
0
100
AcDbSymbolTable
 70
     2
  0
LAYER
  5
10
330
2
100
AcDbSymbolTableRecord
100
AcDbLayerTableRecord
  2
0
 70
     0
 62
     7
  6
Continuous
370
    -3
390
F
  0
LAYER
  5
3B
330
2
100
AcDbSymbolTableRecord
100
AcDbLayerTableRecord
  2
Miura_Table_9590-51_2D
 70
     0
 62
     7
  6
Continuous
370
    -3
390
F
  0
ENDTAB
  0
TABLE
  2
STYLE
  5
3
330
0
100
AcDbSymbolTable
 70
     1
  0
STYLE
  5
11
330
3
100
AcDbSymbolTableRecord
100
AcDbTextStyleTableRecord
  2
Standard
 70
     0
 40
0.0
 41
1.0
 50
0.0
 71
     0
 42
0.2
  3
txt
  4

  0
ENDTAB
  0
TABLE
  2
VIEW
  5
6
330
0
100
AcDbSymbolTable
 70
     0
  0
ENDTAB
  0
TABLE
  2
UCS
  5
7
330
0
100
AcDbSymbolTable
 70
     0
  0
ENDTAB
  0
TABLE
  2
APPID
  5
9
330
0
100
AcDbSymbolTable
 70
     1
  0
APPID
  5
12
330
9
100
AcDbSymbolTableRecord
100
AcDbRegAppTableRecord
  2
ACAD
 70
     0
  0
ENDTAB
  0
TABLE
  2
DIMSTYLE
  5
A
330
0
100
AcDbSymbolTable
 70
     1
100
AcDbDimStyleTable
  0
DIMSTYLE
105
27
330
A
100
AcDbSymbolTableRecord
100
AcDbDimStyleTableRecord
  2
Standard
 70
     0
340
11
  0
ENDTAB
  0
TABLE
  2
BLOCK_RECORD
  5
1
330
0
100
AcDbSymbolTable
 70
     1
  0
BLOCK_RECORD
  5
1F
330
1
100
AcDbSymbolTableRecord
100
AcDbBlockTableRecord
  2
*Model_Space
340
22
  0
BLOCK_RECORD
  5
1B
330
1
100
AcDbSymbolTableRecord
100
AcDbBlockTableRecord
  2
*Paper_Space
340
1E
  0
BLOCK_RECORD
  5
23
330
1
100
AcDbSymbolTableRecord
100
AcDbBlockTableRecord
  2
*Paper_Space0
340
26
  0
ENDTAB
  0
ENDSEC
  0
SECTION
  2
BLOCKS
  0
BLOCK
  5
20
330
1F
100
AcDbEntity
  8
0
100
AcDbBlockBegin
  2
*Model_Space
 70
     0
 10
0.0
 20
0.0
 30
0.0
  3
*Model_Space
  1

  0
ENDBLK
  5
21
330
1F
100
AcDbEntity
  8
0
100
AcDbBlockEnd
  0
BLOCK
  5
1C
330
1B
100
AcDbEntity
 67
     1
  8
0
100
AcDbBlockBegin
  2
*Paper_Space
 70
     0
 10
0.0
 20
0.0
 30
0.0
  3
*Paper_Space
  1

  0
ENDBLK
  5
1D
330
1B
100
AcDbEntity
 67
     1
  8
0
100
AcDbBlockEnd
  0
BLOCK
  5
24
330
23
100
AcDbEntity
  8
0
100
AcDbBlockBegin
  2
*Paper_Space0
 70
     0
 10
0.0
 20
0.0
 30
0.0
  3
*Paper_Space0
  1

  0
ENDBLK
  5
25
330
23
100
AcDbEntity
  8
0
100
AcDbBlockEnd
  0
ENDSEC
  0
SECTION
  2
ENTITIES
  0
LINE
  5
3C
330
1F
100
AcDbEntity
  8
Miura_Table_9590-51_2D
100
AcDbLine
 10
2204.769543816194
 20
1187.676498807622
 30
0.0
 11
2204.769543816194
 21
1105.06580783149
 31
0.0
  0
LINE
  5
3D
330
1F
100
AcDbEntity
  8
Miura_Table_9590-51_2D
100
AcDbLine
 10
2154.769791109968
 20
1105.06580783149
 30
0.0
 11
2154.769791109968
 21
1187.676498807622
 31
0.0
  0
LINE
  5
3E
330
1F
100
AcDbEntity
  8
Miura_Table_9590-51_2D
100
AcDbLine
 10
1052.674597389585
 20
1104.466471409979
 30
0.0
 11
1052.674597390246
 21
1187.676498759271
 31
0.0
  0
LINE
  5
3F
330
1F
100
AcDbEntity
  8
Miura_Table_9590-51_2D
100
AcDbLine
 10
1002.67500149648
 20
1187.676498759271
 30
0.0
 11
1002.675056544597
 21
1109.466471426228
 31
0.0
  0
LINE
  5
40
330
1F
100
AcDbEntity
  8
Miura_Table_9590-51_2D
100
AcDbLine
 10
25.00032668345648
 20
1187.67649881377
 30
0.0
 11
25.00032668345648
 21
1107.810496189536
 31
0.0
  0
LINE
  5
41
330
1F
100
AcDbEntity
  8
Miura_Table_9590-51_2D
100
AcDbLine
 10
-24.99942602276951
 20
1107.81674928377
 30
0.0
 11
-24.99942602276951
 21
1187.676498813772
 31
0.0
  0
SPLINE
  5
42
330
1F
100
AcDbEntity
  8
Miura_Table_9590-51_2D
100
AcDbSpline
210
0.0
220
0.0
230
1.0
 70
    28
 71
     2
 72
     6
 73
     3
 74
     0
 42
0.0000000001
 43
0.0000000001
 40
-0.0016858811199636
 40
-0.0016858811199636
 40
-0.0016858811199636
 40
0.0
 40
0.0
 40
0.0
 10
-137.5019586246008
 20
1211.676499583387
 30
0.0
 41
1.0
 10
-137.5028015646303
 20
1211.676500528942
 30
0.0
 41
1.0
 10
-137.5036445046599
 20
1211.676501474388
 30
0.0
 41
1.0
  0
SPLINE
  5
43
330
1F
100
AcDbEntity
  8
Miura_Table_9590-51_2D
100
AcDbSpline
210
0.0
220
0.0
230
1.0
 70
    12
 71
     2
 72
     6
 73
     3
 74
     0
 42
0.0000000001
 43
0.0000000001
 40
0.0
 40
0.0
 40
0.0
 40
3.923330453739822
 40
3.923330453739822
 40
3.923330453739822
 10
-137.5036445046599
 20
1211.676501474388
 30
0.0
 41
1.0
 10
-139.999991805237
 20
1211.680148848612
 30
0.0
 41
0.7076212603681254
 10
-139.9999890541424
 20
1214.17649881377
 30
0.0
 41
0.9999999999904636
  0
SPLINE
  5
44
330
1F
100
AcDbEntity
  8
Miura_Table_9590-51_2D
100
AcDbSpline
210
0.0
220
0.0
230
1.0
 70
    24
 71
     2
 72
     6
 73
     3
 74
     0
 42
0.0000000001
 43
0.0000000001
 40
0.0
 40
0.0
 40
0.0
 40
3.499999999999773
 40
3.499999999999773
 40
3.499999999999773
 10
-139.9999890541421
 20
1214.17649881377
 30
0.0
 10
-139.9998258691289
 20
1215.92649881377
 30
0.0
 10
-139.9996626841157
 20
1217.67649881377
 30
0.0
  0
SPLINE
  5
45
330
1F
100
AcDbEntity
  8
Miura_Table_9590-51_2D
100
AcDbSpline
210
0.0
220
0.0
230
1.0
 70
    24
 71
     3
 72
     8
 73
     4
 74
     0
 42
0.0000000001
 43
0.0000000001
 40
-279.9993259299167
 40
-279.9993259299167
 40
-279.9993259299167
 40
-279.9993259299167
 40
0.0
 40
0.0
 40
0.0
 40
0.0
 10
-139.9996626841157
 20
1217.67649881377
 30
0.0
 10
-46.66621697483606
 20
1217.676498813769
 30
0.0
 10
46.66689166846936
 20
1217.676498813768
 30
0.0
 10
140.0000003427076
 20
1217.67649881377
 30
0.0
  0
SPLINE
  5
46
330
1F
100
AcDbEntity
  8
Miura_Table_9590-51_2D
100
AcDbSpline
210
0.0
220
0.0
230
1.0
 70
    24
 71
     2
 72
     6
 73
     3
 74
     0
 42
0.0000000001
 43
0.0000000001
 40
0.0
 40
0.0
 40
0.0
 40
3.5
 40
3.5
 40
3.5
 10
140.0000003427076
 20
1217.67649881377
 30
0.0
 10
140.0000003467999
 20
1215.92649881377
 30
0.0
 10
140.0000003508922
 20
1214.17649881377
 30
0.0
  0
SPLINE
  5
47
330
1F
100
AcDbEntity
  8
Miura_Table_9590-51_2D
100
AcDbSpline
210
0.0
220
0.0
230
1.0
 70
    12
 71
     2
 72
     6
 73
     3
 74
     0
 42
0.0000000001
 43
0.0000000001
 40
0.0
 40
0.0
 40
0.0
 40
3.926978729214439
 40
3.926978729214439
 40
3.926978729214439
 10
140.0000003508922
 20
1214.17649881377
 30
0.0
 41
1.0
 10
139.9999997171599
 20
1211.67651125026
 30
0.0
 41
0.7071086263809615
 10
137.500006233292
 20
1211.676498813784
 30
0.0
 41
1.0
  0
SPLINE
  5
48
330
1F
100
AcDbEntity
  8
Miura_Table_9590-51_2D
100
AcDbSpline
210
0.0
220
0.0
230
1.0
 70
    24
 71
     3
 72
     9
 73
     5
 74
     0
 42
0.0000000001
 43
0.0000000001
 40
-275.000634640636
 40
-275.000634640636
 40
-275.000634640636
 40
-275.000634640636
 40
-0.0006371167132784
 40
0.0
 40
0.0
 40
0.0
 40
0.0
 10
137.500006233292
 20
1211.676498813784
 30
0.0
 10
45.83335465098753
 20
1211.676498813768
 30
0.0
 10
-45.83358505928572
 20
1211.676498813775
 30
0.0
 10
-137.5003990038122
 20
1211.67649881377
 30
0.0
 10
-137.4993600943062
 20
1211.67649881377
 30
0.0
  0
SPLINE
  5
49
330
1F
100
AcDbEntity
  8
Miura_Table_9590-51_2D
100
AcDbSpline
210
0.0
220
0.0
230
1.0
 70
    24
 71
     2
 72
     6
 73
     3
 74
     0
 42
0.0000000001
 43
0.0000000001
 40
0.0
 40
0.0
 40
0.0
 40
47.99851635084929
 40
47.99851635084929
 40
47.99851635084929
 10
91.56793484226
 20
1211.675756981241
 30
0.0
 10
70.78396758254121
 20
1199.676127897505
 30
0.0
 10
50.00000032282242
 20
1187.67649881377
 30
0.0
  0
SPLINE
  5
4A
330
1F
100
AcDbEntity
  8
Miura_Table_9590-51_2D
100
AcDbSpline
210
0.0
220
0.0
230
1.0
 70
    24
 71
     3
 72
    10
 73
     6
 74
     0
 42
0.0000000001
 43
0.0000000001
 40
-100.0009354610945
 40
-100.0009354610945
 40
-100.0009354610945
 40
-100.0009354610945
 40
-0.0009354610938317
 40
-0.0007038564751838
 40
0.0
 40
0.0
 40
0.0
 40
0.0
 10
50.00000032282242
 20
1187.67649881377
 30
0.0
 10
16.66669703103616
 20
1187.676498813768
 30
0.0
 10
-16.66680366354649
 20
1187.676498813773
 30
0.0
 10
-50.00035007035603
 20
1187.676498813773
 30
0.0
 10
-49.99868852134932
 20
1187.67649881377
 30
0.0
 10
-49.99953196872502
 20
1187.67649881377
 30
0.0
  0
SPLINE
  5
4B
330
1F
100
AcDbEntity
  8
Miura_Table_9590-51_2D
100
AcDbSpline
210
0.0
220
0.0
230
1.0
 70
    24
 71
     2
 72
     6
 73
     3
 74
     0
 42
0.0000000001
 43
0.0000000001
 40
0.0
 40
0.0
 40
0.0
 40
47.99848741513637
 40
47.99848741513637
 40
47.99848741513637
 10
-49.99953196872502
 20
1187.67649881377
 30
0.0
 10
-70.7837205641863
 20
1199.676120663577
 30
0.0
 10
-91.56790915964757
 20
1211.675742513384
 30
0.0
  0
SPLINE
  5
4C
330
1F
100
AcDbEntity
  8
Miura_Table_9590-51_2D
100
AcDbSpline
210
0.0
220
0.0
230
1.0
 70
    24
 71
     2
 72
     6
 73
     3
 74
     0
 42
0.0000000001
 43
0.0000000001
 40
-47.99848741513632
 40
-47.99848741513632
 40
-47.99848741513632
 40
0.0
 40
0.0
 40
0.0
 10
1119.242630510326
 20
1211.675742458886
 30
0.0
 10
1098.458441914865
 20
1199.676120609078
 30
0.0
 10
1077.674253319403
 20
1187.676498759271
 30
0.0
  0
SPLINE
  5
4D
330
1F
100
AcDbEntity
  8
Miura_Table_9590-51_2D
100
AcDbSpline
210
0.0
220
0.0
230
1.0
 70
    24
 71
     3
 72
    10
 73
     6
 74
     0
 42
0.0000000001
 43
0.0000000001
 40
0.0
 40
0.0
 40
0.0
 40
0.0
 40
0.0007038564752122
 40
0.0009354610935191
 40
50.0009354610936
 40
50.0009354610936
 40
50.0009354610936
 40
50.0009354610936
 10
1077.674253319403
 20
1187.676498759271
 30
0.0
 10
1077.673424566285
 20
1187.676498759273
 30
0.0
 10
1077.675058239708
 20
1187.676498759271
 30
0.0
 10
1061.008219951886
 20
1187.676498759273
 30
0.0
 10
1044.341337034446
 20
1187.67649875927
 30
0.0
 10
1027.674721038903
 20
1187.676498759271
 30
0.0
  0
SPLINE
  5
4E
330
1F
100
AcDbEntity
  8
Miura_Table_9590-51_2D
100
AcDbSpline
210
0.0
220
0.0
230
1.0
 70
    24
 71
     2
 72
     6
 73
     3
 74
     0
 42
0.0000000001
 43
0.0000000001
 40
0.0
 40
0.0
 40
0.0
 40
49.99906453890648
 40
49.99906453890648
 40
49.99906453890648
 10
1027.674721038903
 20
1187.676498759271
 30
0.0
 10
1002.674954898652
 20
1187.676498759271
 30
0.0
 10
977.6751887584019
 20
1187.676498759271
 30
0.0
  0
SPLINE
  5
4F
330
1F
100
AcDbEntity
  8
Miura_Table_9590-51_2D
100
AcDbSpline
210
0.0
220
0.0
230
1.0
 70
    24
 71
     2
 72
     6
 73
     3
 74
     0
 42
0.0000000001
 43
0.0000000001
 40
-47.9984874151363
 40
-47.9984874151363
 40
-47.9984874151363
 40
0.0
 40
0.0
 40
0.0
 10
977.6751887584019
 20
1187.676498759271
 30
0.0
 10
956.891000162941
 20
1199.676120609078
 30
0.0
 10
936.1068115674802
 20
1211.675742458886
 30
0.0
  0
SPLINE
  5
50
330
1F
100
AcDbEntity
  8
Miura_Table_9590-51_2D
100
AcDbSpline
210
0.0
220
0.0
230
1.0
 70
    24
 71
     3
 72
     9
 73
     5
 74
     0
 42
0.0000000001
 43
0.0000000001
 40
0.0
 40
0.0
 40
0.0
 40
0.0
 40
0.0006373261368182
 40
137.5005588484815
 40
137.5005588484815
 40
137.5005588484815
 40
137.5005588484815
 10
1165.174079684617
 20
1211.676498759271
 30
0.0
 10
1165.175102110288
 20
1211.676498759269
 30
0.0
 10
1119.341701097373
 20
1211.67649875927
 30
0.0
 10
1073.508056457135
 20
1211.67649875927
 30
0.0
 10
1027.674758263639
 20
1211.676498759271
 30
0.0
  0
SPLINE
  5
51
330
1F
100
AcDbEntity
  8
Miura_Table_9590-51_2D
100
AcDbSpline
210
0.0
220
0.0
230
1.0
 70
    24
 71
     2
 72
     6
 73
     3
 74
     0
 42
0.0000000001
 43
0.0000000001
 40
0.0
 40
0.0
 40
0.0
 40
137.4994130277261
 40
137.4994130277261
 40
137.4994130277261
 10
1027.674758263639
 20
1211.676498759271
 30
0.0
 10
958.9250331373914
 20
1211.676498759271
 30
0.0
 10
890.1753080111434
 20
1211.676498759271
 30
0.0
  0
SPLINE
  5
52
330
1F
100
AcDbEntity
  8
Miura_Table_9590-51_2D
100
AcDbSpline
210
0.0
220
0.0
230
1.0
 70
    12
 71
     2
 72
     6
 73
     3
 74
     0
 42
0.0000000001
 43
0.0000000001
 40
-0.0017236465548061
 40
-0.0017236465548061
 40
-0.0017236465548061
 40
0.0
 40
0.0
 40
0.0
 10
1165.176581473761
 20
1211.676499455156
 30
0.0
 41
1.0
 10
1165.177443296527
 20
1211.676500394978
 30
0.0
 41
1.0
 10
1165.178305119291
 20
1211.676501334462
 30
0.0
 41
1.0
  0
SPLINE
  5
53
330
1F
100
AcDbEntity
  8
Miura_Table_9590-51_2D
100
AcDbSpline
210
0.0
220
0.0
230
1.0
 70
    12
 71
     2
 72
     6
 73
     3
 74
     0
 42
0.0000000001
 43
0.0000000001
 40
0.0
 40
0.0
 40
0.0
 40
3.923393678308207
 40
3.923393678308207
 40
3.923393678308207
 10
1165.178305119291
 20
1211.676501334462
 30
0.0
 41
1.0
 10
1167.674714186084
 20
1211.680087117198
 30
0.0
 41
0.7076128936508792
 10
1167.674712200754
 20
1214.176498759271
 30
0.0
 41
0.9999999999935767
  0
SPLINE
  5
54
330
1F
100
AcDbEntity
  8
Miura_Table_9590-51_2D
100
AcDbSpline
210
0.0
220
0.0
230
1.0
 70
    24
 71
     2
 72
     6
 73
     3
 74
     0
 42
0.0000000001
 43
0.0000000001
 40
0.0
 40
0.0
 40
0.0
 40
3.5
 40
3.5
 40
3.5
 10
1167.674712200754
 20
1214.176498759271
 30
0.0
 10
1167.674548117774
 20
1215.926498759271
 30
0.0
 10
1167.674384034794
 20
1217.676498759271
 30
0.0
  0
SPLINE
  5
55
330
1F
100
AcDbEntity
  8
Miura_Table_9590-51_2D
100
AcDbSpline
210
0.0
220
0.0
230
1.0
 70
    24
 71
     2
 72
     6
 73
     3
 74
     0
 42
0.0000000001
 43
0.0000000001
 40
-139.9993259299168
 40
-139.9993259299168
 40
-139.9993259299168
 40
0.0
 40
0.0
 40
0.0
 10
1167.674384034794
 20
1217.676498759271
 30
0.0
 10
1097.674552536848
 20
1217.676498759271
 30
0.0
 10
1027.674721038903
 20
1217.676498759271
 30
0.0
  0
SPLINE
  5
56
330
1F
100
AcDbEntity
  8
Miura_Table_9590-51_2D
100
AcDbSpline
210
0.0
220
0.0
230
1.0
 70
    24
 71
     3
 72
     9
 73
     5
 74
     0
 42
0.0000000001
 43
0.0000000001
 40
-140.0006740700831
 40
-140.0006740700831
 40
-140.0006740700831
 40
-140.0006740700831
 40
-0.000588034942917
 40
0.0
 40
0.0
 40
0.0
 40
0.0
 10
1027.674721038903
 20
1217.676498759271
 30
0.0
 10
981.0081417117503
 20
1217.676498759269
 30
0.0
 10
934.3410393403424
 20
1217.676498759272
 30
0.0
 10
887.6744183527721
 20
1217.676498759273
 30
0.0
 10
887.6750580430121
 20
1217.676498759271
 30
0.0
  0
SPLINE
  5
57
330
1F
100
AcDbEntity
  8
Miura_Table_9590-51_2D
100
AcDbSpline
210
0.0
220
0.0
230
1.0
 70
    24
 71
     2
 72
     6
 73
     3
 74
     0
 42
0.0000000001
 43
0.0000000001
 40
0.0
 40
0.0
 40
0.0
 40
3.5
 40
3.5
 40
3.5
 10
887.6750580430121
 20
1217.676498759271
 30
0.0
 10
887.6748745947466
 20
1215.926498759271
 30
0.0
 10
887.6746911464811
 20
1214.176498759271
 30
0.0
  0
SPLINE
  5
58
330
1F
100
AcDbEntity
  8
Miura_Table_9590-51_2D
100
AcDbSpline
210
0.0
220
0.0
230
1.0
 70
    12
 71
     2
 72
     6
 73
     3
 74
     0
 42
0.0000000001
 43
0.0000000001
 40
0.0
 40
0.0
 40
0.0
 40
3.923569074038741
 40
3.923569074038741
 40
3.923569074038741
 10
887.6746911464813
 20
1214.176498759271
 30
0.0
 41
0.9999999999897549
 10
887.6746664960913
 20
1211.679921109194
 30
0.0
 41
0.7075916723679009
 10
890.1712418036254
 20
1211.676501110708
 30
0.0
 41
1.0
  0
SPLINE
  5
59
330
1F
100
AcDbEntity
  8
Miura_Table_9590-51_2D
100
AcDbSpline
210
0.0
220
0.0
230
1.0
 70
    28
 71
     2
 72
     6
 73
     3
 74
     0
 42
0.0000000001
 43
0.0000000001
 40
0.0
 40
0.0
 40
0.0
 40
0.0017079348288815
 40
0.0017079348288815
 40
0.0017079348288815
 10
890.1712418036254
 20
1211.676501110708
 30
0.0
 41
1.0
 10
890.172095770587
 20
1211.676500231291
 30
0.0
 41
1.0
 10
890.1729497375486
 20
1211.676499351766
 30
0.0
 41
1.0
  0
SPLINE
  5
5A
330
1F
100
AcDbEntity
  8
Miura_Table_9590-51_2D
100
AcDbSpline
210
0.0
220
0.0
230
1.0
 70
    12
 71
     2
 72
     6
 73
     3
 74
     0
 42
0.0000000001
 43
0.0000000001
 40
-0.0017236465548061
 40
-0.0017236465548061
 40
-0.0017236465548061
 40
0.0
 40
0.0
 40
0.0
 10
2317.271977916508
 20
1211.676499503507
 30
0.0
 41
1.0
 10
2317.272839739274
 20
1211.676500443329
 30
0.0
 41
1.0
 10
2317.273701562038
 20
1211.676501382813
 30
0.0
 41
1.0
  0
SPLINE
  5
5B
330
1F
100
AcDbEntity
  8
Miura_Table_9590-51_2D
100
AcDbSpline
210
0.0
220
0.0
230
1.0
 70
    12
 71
     2
 72
     6
 73
     3
 74
     0
 42
0.0000000001
 43
0.0000000001
 40
0.0
 40
0.0
 40
0.0
 40
3.923393678308207
 40
3.923393678308207
 40
3.923393678308207
 10
2317.273701562038
 20
1211.676501382813
 30
0.0
 41
1.0
 10
2319.77011062883
 20
1211.680087165549
 30
0.0
 41
0.7076128936508792
 10
2319.7701086435
 20
1214.176498807622
 30
0.0
 41
0.9999999999935767
  0
SPLINE
  5
5C
330
1F
100
AcDbEntity
  8
Miura_Table_9590-51_2D
100
AcDbSpline
210
0.0
220
0.0
230
1.0
 70
    24
 71
     2
 72
     6
 73
     3
 74
     0
 42
0.0000000001
 43
0.0000000001
 40
0.0
 40
0.0
 40
0.0
 40
3.5
 40
3.5
 40
3.5
 10
2319.770108643501
 20
1214.176498807622
 30
0.0
 10
2319.769944560521
 20
1215.926498807622
 30
0.0
 10
2319.769780477541
 20
1217.676498807622
 30
0.0
  0
SPLINE
  5
5D
330
1F
100
AcDbEntity
  8
Miura_Table_9590-51_2D
100
AcDbSpline
210
0.0
220
0.0
230
1.0
 70
    24
 71
     2
 72
     6
 73
     3
 74
     0
 42
0.0000000001
 43
0.0000000001
 40
-139.9993259299168
 40
-139.9993259299168
 40
-139.9993259299168
 40
0.0
 40
0.0
 40
0.0
 10
2319.769780477541
 20
1217.676498807622
 30
0.0
 10
2249.769948979595
 20
1217.676498807622
 30
0.0
 10
2179.770117481649
 20
1217.676498807622
 30
0.0
  0
SPLINE
  5
5E
330
1F
100
AcDbEntity
  8
Miura_Table_9590-51_2D
100
AcDbSpline
210
0.0
220
0.0
230
1.0
 70
    24
 71
     3
 72
     9
 73
     5
 74
     0
 42
0.0000000001
 43
0.0000000001
 40
-140.0006740700831
 40
-140.0006740700831
 40
-140.0006740700831
 40
-140.0006740700831
 40
-0.000588034942917
 40
0.0
 40
0.0
 40
0.0
 40
0.0
 10
2179.770117481649
 20
1217.676498807622
 30
0.0
 10
2133.103538154497
 20
1217.67649880762
 30
0.0
 10
2086.436435783089
 20
1217.676498807623
 30
0.0
 10
2039.769814795519
 20
1217.676498807624
 30
0.0
 10
2039.770454485759
 20
1217.676498807622
 30
0.0
  0
SPLINE
  5
5F
330
1F
100
AcDbEntity
  8
Miura_Table_9590-51_2D
100
AcDbSpline
210
0.0
220
0.0
230
1.0
 70
    24
 71
     2
 72
     6
 73
     3
 74
     0
 42
0.0000000001
 43
0.0000000001
 40
0.0
 40
0.0
 40
0.0
 40
3.5
 40
3.5
 40
3.5
 10
2039.770454485759
 20
1217.676498807622
 30
0.0
 10
2039.770271037493
 20
1215.926498807622
 30
0.0
 10
2039.770087589228
 20
1214.176498807622
 30
0.0
  0
SPLINE
  5
60
330
1F
100
AcDbEntity
  8
Miura_Table_9590-51_2D
100
AcDbSpline
210
0.0
220
0.0
230
1.0
 70
    12
 71
     2
 72
     6
 73
     3
 74
     0
 42
0.0000000001
 43
0.0000000001
 40
0.0
 40
0.0
 40
0.0
 40
3.923569074038741
 40
3.923569074038741
 40
3.923569074038741
 10
2039.770087589228
 20
1214.176498807622
 30
0.0
 41
0.9999999999897549
 10
2039.770062938838
 20
1211.679921157545
 30
0.0
 41
0.7075916723679009
 10
2042.266638246372
 20
1211.676501159059
 30
0.0
 41
1.0
  0
SPLINE
  5
61
330
1F
100
AcDbEntity
  8
Miura_Table_9590-51_2D
100
AcDbSpline
210
0.0
220
0.0
230
1.0
 70
    28
 71
     2
 72
     6
 73
     3
 74
     0
 42
0.0000000001
 43
0.0000000001
 40
0.0
 40
0.0
 40
0.0
 40
0.0017079348288815
 40
0.0017079348288815
 40
0.0017079348288815
 10
2042.266638246372
 20
1211.676501159059
 30
0.0
 41
1.0
 10
2042.267492213334
 20
1211.676500279642
 30
0.0
 41
1.0
 10
2042.268346180295
 20
1211.676499400117
 30
0.0
 41
1.0
  0
SPLINE
  5
62
330
1F
100
AcDbEntity
  8
Miura_Table_9590-51_2D
100
AcDbSpline
210
0.0
220
0.0
230
1.0
 70
    24
 71
     3
 72
     9
 73
     5
 74
     0
 42
0.0000000001
 43
0.0000000001
 40
0.0
 40
0.0
 40
0.0
 40
0.0
 40
0.0006373261368182
 40
137.5005588484815
 40
137.5005588484815
 40
137.5005588484815
 40
137.5005588484815
 10
2317.269476127364
 20
1211.676498807622
 30
0.0
 10
2317.270498553034
 20
1211.67649880762
 30
0.0
 10
2271.43709754012
 20
1211.676498807621
 30
0.0
 10
2225.603452899882
 20
1211.676498807621
 30
0.0
 10
2179.770154706386
 20
1211.676498807622
 30
0.0
  0
SPLINE
  5
63
330
1F
100
AcDbEntity
  8
Miura_Table_9590-51_2D
100
AcDbSpline
210
0.0
220
0.0
230
1.0
 70
    24
 71
     2
 72
     6
 73
     3
 74
     0
 42
0.0000000001
 43
0.0000000001
 40
0.0
 40
0.0
 40
0.0
 40
137.4994130277261
 40
137.4994130277261
 40
137.4994130277261
 10
2179.770154706386
 20
1211.676498807622
 30
0.0
 10
2111.020429580138
 20
1211.676498807622
 30
0.0
 10
2042.27070445389
 20
1211.676498807622
 30
0.0
  0
SPLINE
  5
64
330
1F
100
AcDbEntity
  8
Miura_Table_9590-51_2D
100
AcDbSpline
210
0.0
220
0.0
230
1.0
 70
    24
 71
     2
 72
     6
 73
     3
 74
     0
 42
0.0000000001
 43
0.0000000001
 40
-47.99848741513632
 40
-47.99848741513632
 40
-47.99848741513632
 40
0.0
 40
0.0
 40
0.0
 10
2271.338026953073
 20
1211.675742507237
 30
0.0
 10
2250.553838357611
 20
1199.676120657429
 30
0.0
 10
2229.76964976215
 20
1187.676498807622
 30
0.0
  0
SPLINE
  5
65
330
1F
100
AcDbEntity
  8
Miura_Table_9590-51_2D
100
AcDbSpline
210
0.0
220
0.0
230
1.0
 70
    24
 71
     3
 72
    10
 73
     6
 74
     0
 42
0.0000000001
 43
0.0000000001
 40
0.0
 40
0.0
 40
0.0
 40
0.0
 40
0.0007038564752122
 40
0.0009354610935191
 40
50.0009354610936
 40
50.0009354610936
 40
50.0009354610936
 40
50.0009354610936
 10
2229.76964976215
 20
1187.676498807622
 30
0.0
 10
2229.768821009032
 20
1187.676498807625
 30
0.0
 10
2229.770454682454
 20
1187.676498807622
 30
0.0
 10
2213.103616394633
 20
1187.676498807624
 30
0.0
 10
2196.436733477193
 20
1187.676498807621
 30
0.0
 10
2179.770117481649
 20
1187.676498807622
 30
0.0
  0
SPLINE
  5
66
330
1F
100
AcDbEntity
  8
Miura_Table_9590-51_2D
100
AcDbSpline
210
0.0
220
0.0
230
1.0
 70
    24
 71
     2
 72
     6
 73
     3
 74
     0
 42
0.0000000001
 43
0.0000000001
 40
0.0
 40
0.0
 40
0.0
 40
49.99906453890648
 40
49.99906453890648
 40
49.99906453890648
 10
2179.770117481649
 20
1187.676498807622
 30
0.0
 10
2154.770351341399
 20
1187.676498807622
 30
0.0
 10
2129.770585201149
 20
1187.676498807622
 30
0.0
  0
SPLINE
  5
67
330
1F
100
AcDbEntity
  8
Miura_Table_9590-51_2D
100
AcDbSpline
210
0.0
220
0.0
230
1.0
 70
    24
 71
     2
 72
     6
 73
     3
 74
     0
 42
0.0000000001
 43
0.0000000001
 40
-47.9984874151363
 40
-47.9984874151363
 40
-47.9984874151363
 40
0.0
 40
0.0
 40
0.0
 10
2129.770585201149
 20
1187.676498807622
 30
0.0
 10
2108.986396605688
 20
1199.676120657429
 30
0.0
 10
2088.202208010227
 20
1211.675742507237
 30
0.0
  0
POLYLINE
  5
68
330
1F
100
AcDbEntity
  8
Miura_Table_9590-51_2D
100
AcDb2dPolyline
 66
     1
 10
0.0
 20
0.0
 30
0.0
  0
VERTEX
  5
69
330
68
100
AcDbEntity
  8
Miura_Table_9590-51_2D
100
AcDbVertex
100
AcDb2dVertex
 10
1829.770117481649
 20
1217.676498807622
 30
0.0
  0
VERTEX
  5
6A
330
68
100
AcDbEntity
  8
Miura_Table_9590-51_2D
100
AcDbVertex
100
AcDb2dVertex
 10
2529.770117481649
 20
1217.676498807622
 30
0.0
  0
VERTEX
  5
6B
330
68
100
AcDbEntity
  8
Miura_Table_9590-51_2D
100
AcDbVertex
100
AcDb2dVertex
 10
2529.770117481649
 20
1227.676498807622
 30
0.0
  0
VERTEX
  5
6C
330
68
100
AcDbEntity
  8
Miura_Table_9590-51_2D
100
AcDbVertex
100
AcDb2dVertex
 10
1829.770117481649
 20
1227.676498807622
 30
0.0
  0
VERTEX
  5
6D
330
68
100
AcDbEntity
  8
Miura_Table_9590-51_2D
100
AcDbVertex
100
AcDb2dVertex
 10
1829.770117481649
 20
1217.676498807622
 30
0.0
  0
SEQEND
  5
6E
330
68
100
AcDbEntity
  8
Miura_Table_9590-51_2D
  0
POLYLINE
  5
6F
330
1F
100
AcDbEntity
  8
Miura_Table_9590-51_2D
100
AcDb2dPolyline
 66
     1
 10
0.0
 20
0.0
 30
0.0
  0
VERTEX
  5
70
330
6F
100
AcDbEntity
  8
Miura_Table_9590-51_2D
100
AcDbVertex
100
AcDb2dVertex
 10
677.6747210389026
 20
1217.676498807622
 30
0.0
  0
VERTEX
  5
71
330
6F
100
AcDbEntity
  8
Miura_Table_9590-51_2D
100
AcDbVertex
100
AcDb2dVertex
 10
1377.674721038903
 20
1217.676498807622
 30
0.0
  0
VERTEX
  5
72
330
6F
100
AcDbEntity
  8
Miura_Table_9590-51_2D
100
AcDbVertex
100
AcDb2dVertex
 10
1377.674721038903
 20
1227.676498807622
 30
0.0
  0
VERTEX
  5
73
330
6F
100
AcDbEntity
  8
Miura_Table_9590-51_2D
100
AcDbVertex
100
AcDb2dVertex
 10
677.6747210389026
 20
1227.676498807622
 30
0.0
  0
VERTEX
  5
74
330
6F
100
AcDbEntity
  8
Miura_Table_9590-51_2D
100
AcDbVertex
100
AcDb2dVertex
 10
677.6747210389026
 20
1217.676498807622
 30
0.0
  0
SEQEND
  5
75
330
6F
100
AcDbEntity
  8
Miura_Table_9590-51_2D
  0
POLYLINE
  5
76
330
1F
100
AcDbEntity
  8
Miura_Table_9590-51_2D
100
AcDb2dPolyline
 66
     1
 10
0.0
 20
0.0
 30
0.0
  0
VERTEX
  5
77
330
76
100
AcDbEntity
  8
Miura_Table_9590-51_2D
100
AcDbVertex
100
AcDb2dVertex
 10
-350.0004555227408
 20
1217.676498807622
 30
0.0
  0
VERTEX
  5
78
330
76
100
AcDbEntity
  8
Miura_Table_9590-51_2D
100
AcDbVertex
100
AcDb2dVertex
 10
349.9995444772592
 20
1217.676498807622
 30
0.0
  0
VERTEX
  5
79
330
76
100
AcDbEntity
  8
Miura_Table_9590-51_2D
100
AcDbVertex
100
AcDb2dVertex
 10
349.9995444772592
 20
1227.676498807622
 30
0.0
  0
VERTEX
  5
7A
330
76
100
AcDbEntity
  8
Miura_Table_9590-51_2D
100
AcDbVertex
100
AcDb2dVertex
 10
-350.0004555227408
 20
1227.676498807622
 30
0.0
  0
VERTEX
  5
7B
330
76
100
AcDbEntity
  8
Miura_Table_9590-51_2D
100
AcDbVertex
100
AcDb2dVertex
 10
-350.0004555227408
 20
1217.676498807622
 30
0.0
  0
SEQEND
  5
7C
330
76
100
AcDbEntity
  8
Miura_Table_9590-51_2D
  0
CIRCLE
  5
7D
330
1F
100
AcDbEntity
  8
Miura_Table_9590-51_2D
100
AcDbCircle
 10
0.0
 20
0.0
 30
0.0
 40
350.0
  0
SPLINE
  5
7E
330
1F
100
AcDbEntity
  8
Miura_Table_9590-51_2D
 62
     9
100
AcDbSpline
210
0.0
220
0.0
230
1.0
 70
    24
 71
     2
 72
     6
 73
     3
 74
     0
 42
0.0000000001
 43
0.0000000001
 40
0.0
 40
0.0
 40
0.0
 40
203.6334854806771
 40
203.6334854806771
 40
203.6334854806771
 10
-25.13000115975137
 20
137.7259695286505
 30
0.0
 10
-25.13000115975183
 20
239.542712268989
 30
0.0
 10
-25.13000115975228
 20
341.3594550093276
 30
0.0
  0
SPLINE
  5
7F
330
1F
100
AcDbEntity
  8
Miura_Table_9590-51_2D
 62
     9
100
AcDbSpline
210
0.0
220
0.0
230
1.0
 70
    24
 71
     2
 72
     6
 73
     3
 74
     0
 42
0.0000000001
 43
0.0000000001
 40
0.0
 40
0.0
 40
0.0
 40
203.6333458706113
 40
203.6333458706113
 40
203.6333458706113
 10
25.13000115975319
 20
341.3594550093279
 30
0.0
 10
25.13000115975319
 20
239.5427820740223
 30
0.0
 10
25.13000115975319
 20
137.7261091387166
 30
0.0
  0
SPLINE
  5
80
330
1F
100
AcDbEntity
  8
Miura_Table_9590-51_2D
 62
     9
100
AcDbSpline
210
0.0
220
0.0
230
1.0
 70
    24
 71
     2
 72
     6
 73
     3
 74
     0
 42
0.0000000001
 43
0.0000000001
 40
0.0
 40
0.0
 40
0.0
 40
203.633708102275
 40
203.633708102275
 40
203.633708102275
 10
-106.7089949968013
 20
-90.62609285499516
 30
0.0
 10
-194.8849771384989
 20
-141.534519880564
 30
0.0
 10
-283.0609592801966
 20
-192.4429469061328
 30
0.0
  0
SPLINE
  5
81
330
1F
100
AcDbEntity
  8
Miura_Table_9590-51_2D
 62
     9
100
AcDbSpline
210
0.0
220
0.0
230
1.0
 70
    24
 71
     2
 72
     6
 73
     3
 74
     0
 42
0.0000000001
 43
0.0000000001
 40
0.0
 40
0.0
 40
0.0
 40
203.633334284065
 40
203.633334284065
 40
203.633334284065
 10
-308.1909604399316
 20
-148.9165081031656
 30
0.0
 10
-220.015140166267
 20
-98.00817453214955
 30
0.0
 10
-131.8393198926024
 20
-47.09984096113351
 30
0.0
  0
SPLINE
  5
82
330
1F
100
AcDbEntity
  8
Miura_Table_9590-51_2D
 62
     9
100
AcDbSpline
210
0.0
220
0.0
230
1.0
 70
    24
 71
     2
 72
     6
 73
     3
 74
     0
 42
0.0000000001
 43
0.0000000001
 40
0.0
 40
0.0
 40
0.0
 40
203.6337242888049
 40
203.6337242888049
 40
203.6337242888049
 10
131.838982138609
 20
-47.09964595877372
 30
0.0
 10
220.0149712892799
 20
-98.00807703097482
 30
0.0
 10
308.1909604399507
 20
-148.9165081031759
 30
0.0
  0
SPLINE
  5
83
330
1F
100
AcDbEntity
  8
Miura_Table_9590-51_2D
 62
     9
100
AcDbSpline
210
0.0
220
0.0
230
1.0
 70
    24
 71
     2
 72
     6
 73
     3
 74
     0
 42
0.0000000001
 43
0.0000000001
 40
0.0
 40
0.0
 40
0.0
 40
203.6338520885392
 40
203.6338520885392
 40
203.6338520885392
 10
283.0609592801911
 20
-192.442946906129
 30
0.0
 10
194.8849147906121
 20
-141.534483883994
 30
0.0
 10
106.7088703010331
 20
-90.62602086185896
 30
0.0
  0
SPLINE
  5
84
330
1F
100
AcDbEntity
  8
Miura_Table_9590-51_2D
 62
     9
100
AcDbSpline
210
0.0
220
0.0
230
1.0
 70
    24
 71
     2
 72
     6
 73
     3
 74
     0
 42
0.0000000001
 43
0.0000000001
 40
0.0
 40
0.0
 40
0.0
 40
0.0064177164454542
 40
0.0064177164454542
 40
0.0064177164454542
 10
-25.12995699912881
 20
341.3594553392572
 30
0.0
 10
-25.12997849750536
 20
341.3626641254629
 30
0.0
 10
-25.12999999588192
 20
341.3658729116685
 30
0.0
  0
SPLINE
  5
85
330
1F
100
AcDbEntity
  8
Miura_Table_9590-51_2D
 62
     9
100
AcDbSpline
210
0.0
220
0.0
230
1.0
 70
    24
 71
     2
 72
     6
 73
     3
 74
     0
 42
0.0000000001
 43
0.0000000001
 40
0.0
 40
0.0
 40
0.0
 40
0.0064177164451132
 40
0.0064177164451132
 40
0.0064177164451132
 10
25.12999999588374
 20
341.3658729116685
 30
0.0
 10
25.12997849750718
 20
341.362664125463
 30
0.0
 10
25.12995699913063
 20
341.3594553392576
 30
0.0
  0
SPLINE
  5
86
330
1F
100
AcDbEntity
  8
Miura_Table_9590-51_2D
100
AcDbSpline
210
0.0
220
0.0
230
1.0
 70
    24
 71
     2
 72
     6
 73
     3
 74
     0
 42
0.0000000001
 43
0.0000000001
 40
0.0
 40
0.0
 40
0.0
 40
0.006417716462647
 40
0.006417716462647
 40
0.006417716462647
 10
-283.0609816462356
 20
-192.4429088268761
 30
0.0
 10
-283.0637497874241
 20
-192.4445318381235
 30
0.0
 10
-283.0665179286125
 20
-192.4461548493709
 30
0.0
  0
SPLINE
  5
87
330
1F
100
AcDbEntity
  8
Miura_Table_9590-51_2D
 62
     9
100
AcDbSpline
210
0.0
220
0.0
230
1.0
 70
    24
 71
     2
 72
     6
 73
     3
 74
     0
 42
0.0000000001
 43
0.0000000001
 40
0.0
 40
0.0
 40
0.0
 40
0.0064177164832391
 40
0.0064177164832391
 40
0.0064177164832391
 10
-308.1965179244953
 20
-148.9197180622958
 30
0.0
 10
-308.1937282849212
 20
-148.9181322873239
 30
0.0
 10
-308.1909386453472
 20
-148.916546512352
 30
0.0
  0
SPLINE
  5
88
330
1F
100
AcDbEntity
  8
Miura_Table_9590-51_2D
 62
     9
100
AcDbSpline
210
0.0
220
0.0
230
1.0
 70
    24
 71
     2
 72
     6
 73
     3
 74
     0
 42
0.0000000001
 43
0.0000000001
 40
0.0
 40
0.0
 40
0.0
 40
0.0064177164631026
 40
0.0064177164631026
 40
0.0064177164631026
 10
308.1909386453663
 20
-148.9165465123622
 30
0.0
 10
308.1937282849317
 20
-148.9181322873291
 30
0.0
 10
308.1965179244971
 20
-148.9197180622961
 30
0.0
  0
SPLINE
  5
89
330
1F
100
AcDbEntity
  8
Miura_Table_9590-51_2D
100
AcDbSpline
210
0.0
220
0.0
230
1.0
 70
    24
 71
     2
 72
     6
 73
     3
 74
     0
 42
0.0000000001
 43
0.0000000001
 40
0.0
 40
0.0
 40
0.0
 40
0.0064177164707695
 40
0.0064177164707695
 40
0.0064177164707695
 10
283.0665179286134
 20
-192.4461548493711
 30
0.0
 10
283.0637497874213
 20
-192.4445318381217
 30
0.0
 10
283.0609816462293
 20
-192.4429088268723
 30
0.0
  0
SPLINE
  5
8A
330
1F
100
AcDbEntity
  8
Miura_Table_9590-51_2D
 62
     9
100
AcDbSpline
210
0.0
220
0.0
230
1.0
 70
    11
 71
     3
 72
    39
 73
    35
 74
     0
 42
0.0000000001
 43
0.0000000001
 40
0.0
 40
0.0
 40
0.0
 40
0.0
 40
27.49163491281067
 40
54.98554466015823
 40
82.47417243782984
 40
109.9550851858812
 40
137.4405102302657
 40
164.9353017108435
 40
192.4180551861614
 40
219.9101446616718
 40
247.4017795744827
 40
274.8956893218303
 40
302.3843170995021
 40
329.8652298475533
 40
357.3506548919382
 40
384.8454463725156
 40
412.3281998478335
 40
439.8202893233441
 40
467.311924236154
 40
494.8058339835015
 40
522.2944617611732
 40
549.7753745092244
 40
577.2607995536106
 40
604.755591034188
 40
632.2383445095059
 40
659.7304339850166
 40
687.222068897827
 40
714.7159786451745
 40
742.2046064228463
 40
769.6855191708972
 40
797.1709442152832
 40
824.6657356958605
 40
852.1484891711783
 40
879.6405786466887
 40
879.6405786466887
 40
879.6405786466887
 40
879.6405786466887
 10
140.0000000000009
 20
0.0000000000005116
 30
0.0
 10
140.0004090247703
 20
-9.163905643350944
 30
0.0
 10
138.1944212161625
 20
-27.49226151472897
 30
0.0
 10
130.1746570607302
 20
-53.92691684113075
 30
0.0
 10
117.1529651417422
 20
-78.28553407702432
 30
0.0
 10
99.63172728010431
 20
-99.63384262040996
 30
0.0
 10
78.28162397614233
 20
-117.156235995207
 30
0.0
 10
53.92195901493142
 20
-130.1759647592557
 30
0.0
 10
27.4892560780745
 20
-138.1956047753177
 30
0.0
 10
-0.0000802954209576
 20
-140.9019314174167
 30
0.0
 10
-27.49217534757645
 20
-138.1952675994851
 30
0.0
 10
-53.92697059658713
 20
-130.1741390086331
 30
0.0
 10
-78.2855009168843
 20
-117.1532839944569
 30
0.0
 10
-99.63386305126551
 20
-99.6315308786685
 30
0.0
 10
-117.156223404816
 20
-78.28174500353096
 30
0.0
 10
-130.1759725149677
 20
-53.9218844620375
 30
0.0
 10
-138.1955999973516
 20
-27.48930200693806
 30
0.0
 10
-140.9019343612681
 20
0.0001085936183927
 30
0.0
 10
-138.1952657857837
 20
27.49215791311335
 30
0.0
 10
-130.1741401260178
 20
53.9269813375987
 30
0.0
 10
-117.153283306192
 20
78.28549430083945
 30
0.0
 10
-99.63153130265346
 20
99.63386712688043
 30
0.0
 10
-78.28174474225762
 20
117.1562208932944
 30
0.0
 10
-53.92188462298327
 20
130.1759740620686
 30
0.0
 10
-27.48930190778628
 20
138.1955990442501
 30
0.0
 10
0.0001085325284294
 20
140.9019349485069
 30
0.0
 10
27.4921579507527
 20
138.1952654239892
 30
0.0
 10
53.92698131441102
 20
130.174140348913
 30
0.0
 10
78.2854943151242
 20
117.1532831688992
 30
0.0
 10
99.6339475237919
 20
99.63160615754401
 30
0.0
 10
117.1558984336098
 20
78.28154887639255
 30
0.0
 10
130.1764166945277
 20
53.92214983624064
 30
0.0
 10
138.1952207402082
 20
27.4890020842378
 30
0.0
 10
139.9993145385724
 20
9.163944759148961
 30
0.0
 10
140.0000000000009
 20
0.0000000000005116
 30
0.0
  0
SPLINE
  5
8B
330
1F
100
AcDbEntity
  8
Miura_Table_9590-51_2D
 62
     9
100
AcDbSpline
210
0.0
220
0.0
230
1.0
 70
    11
 71
     3
 72
    39
 73
    35
 74
     0
 42
0.0000000001
 43
0.0000000001
 40
0.0
 40
0.0
 40
0.0
 40
0.0
 40
17.98133963208149
 40
35.96416715575479
 40
53.94353992342776
 40
71.91786655367305
 40
89.89514452286816
 40
107.8785487581381
 40
125.8540793452332
 40
143.8357162912548
 40
161.8170559233368
 40
179.79988344701
 40
197.7792562146827
 40
215.7535828449282
 40
233.7308608141233
 40
251.7142650493934
 40
269.689795636488
 40
287.6714325825098
 40
305.6527722145915
 40
323.6355997382645
 40
341.6149725059374
 40
359.5892991361829
 40
377.566577105378
 40
395.549981340648
 40
413.5255119277427
 40
431.5071488737649
 40
449.4884885058464
 40
467.4713160295196
 40
485.4506887971928
 40
503.4250154274384
 40
521.4022933966334
 40
539.3856976319033
 40
557.3612282189979
 40
575.3428651650199
 40
575.3428651650199
 40
575.3428651650199
 40
575.3428651650199
 10
91.56921938165397
 20
0.00000000000054
 30
0.0
 10
91.56948691078924
 20
-5.993797758919328
 30
0.0
 10
90.38825195473783
 20
-17.98174947099955
 30
0.0
 10
85.1427980737526
 20
-35.2717548485829
 30
0.0
 10
76.62575404482413
 20
-51.20389460220588
 30
0.0
 10
65.16571066203505
 20
-65.16709423389571
 30
0.0
 10
51.20133713873838
 20
-76.62789339838412
 30
0.0
 10
35.26851210376299
 20
-85.14365339470413
 30
0.0
 10
17.97978371751196
 20
-90.38902608036612
 30
0.0
 10
-0.000052518492339
 20
-92.15914192328603
 30
0.0
 10
-17.98169311200763
 20
-90.3888055451678
 30
0.0
 10
-35.27179000819069
 20
-85.1424592335664
 30
0.0
 10
-51.20387291329189
 20
-76.62596259549684
 30
0.0
 10
-65.16710759702255
 20
-65.16558220256277
 30
0.0
 10
-76.62788516343699
 20
-51.2014162986209
 30
0.0
 10
-85.14365846745113
 20
-35.26846334126054
 30
0.0
 10
-90.38902295525986
 20
-17.97981375801263
 30
0.0
 10
-92.15914384876123
 20
0.0000710273775724
 30
0.0
 10
-90.38880435888586
 20
17.98168170872125
 30
0.0
 10
-85.14245996441059
 20
35.27179703352107
 30
0.0
 10
-76.6259621453255
 20
51.2038685859626
 30
0.0
 10
-65.16558247987814
 20
65.16711026274152
 30
0.0
 10
-51.20141612773023
 20
76.62788352073915
 30
0.0
 10
-35.26846344652859
 20
85.14365947935698
 30
0.0
 10
-17.97981369316039
 20
90.3890223318707
 30
0.0
 10
0.000070987419349
 20
92.1591442328517
 30
0.0
 10
17.98168173334034
 20
90.38880412225063
 30
0.0
 10
35.27179701835394
 20
85.14246011019793
 30
0.0
 10
51.2038685953039
 20
76.62596205552757
 30
0.0
 10
65.16716284761696
 20
65.1656314399051
 30
0.0
 10
76.62767261086992
 20
51.20128801855694
 30
0.0
 10
85.14394899013405
 20
35.26863691346529
 30
0.0
 10
90.38877489611423
 20
17.97961758881644
 30
0.0
 10
91.56877104474006
 20
5.993823343227575
 30
0.0
 10
91.56921938165397
 20
0.0000000000004832
 30
0.0
  0
SPLINE
  5
8C
330
1F
100
AcDbEntity
  8
Miura_Table_9590-51_2D
 62
     9
100
AcDbSpline
210
0.0
220
0.0
230
1.0
 70
    15
 71
     2
 72
    12
 73
     9
 74
     0
 42
0.0000000001
 43
0.0000000001
 40
0.0
 40
0.0
 40
0.0
 40
78.53981633974519
 40
78.53981633974519
 40
157.0796326794904
 40
157.0796326794904
 40
235.6194490192356
 40
235.6194490192356
 40
314.1592653589807
 40
314.1592653589807
 40
314.1592653589807
 10
50.00000000000091
 20
0.00000000000054
 30
0.0
 41
1.0
 10
50.00000000000028
 20
50.0000000000008
 30
0.0
 41
0.7071067811865476
 10
0.0
 20
50.00000000000063
 30
0.0
 41
1.0
 10
-49.99999999999988
 20
50.00000000000048
 30
0.0
 41
0.7071067811865476
 10
-50.0
 20
0.0000000000002558
 30
0.0
 41
1.0
 10
-49.99999999999988
 20
-50.0
 30
0.0
 41
0.7071067811865476
 10
0.0000000000009095
 20
-49.99999999999983
 30
0.0
 41
1.0
 10
50.00000000000028
 20
-49.99999999999967
 30
0.0
 41
0.7071067811865476
 10
50.00000000000091
 20
0.00000000000054
 30
0.0
 41
1.0
  0
SPLINE
  5
8D
330
1F
100
AcDbEntity
  8
Miura_Table_9590-51_2D
100
AcDbSpline
210
0.0
220
0.0
230
1.0
 70
     8
 71
     3
 72
    12
 73
     8
 74
     0
 42
0.0000000001
 43
0.0000000001
 40
0.0
 40
0.0
 40
0.0
 40
0.0
 40
0.0890023797843848
 40
0.1797960093845599
 40
0.411193526615116
 40
0.6556287843923315
 40
0.8529811660911646
 40
0.8529811660911646
 40
0.8529811660911646
 40
0.8529811660911646
 10
-318.0662017726172
 20
736.4081451953925
 30
0.0
 10
-318.0468898106265
 20
736.430872999737
 30
0.0
 10
-318.006096133774
 20
736.4750010610114
 30
0.0
 10
-317.8974194918601
 20
736.5592535762037
 30
0.0
 10
-317.7308983113044
 20
736.6495107596254
 30
0.0
 10
-317.5213916629509
 20
736.731310969684
 30
0.0
 10
-317.3758726790202
 20
736.7591598235829
 30
0.0
 10
-317.3099827956266
 20
736.7609436480286
 30
0.0
  0
SPLINE
  5
8E
330
1F
100
AcDbEntity
  8
Miura_Table_9590-51_2D
100
AcDbSpline
210
0.0
220
0.0
230
1.0
 70
    24
 71
     2
 72
     6
 73
     3
 74
     0
 42
0.0000000001
 43
0.0000000001
 40
0.0
 40
0.0
 40
0.0
 40
0.5244495011189884
 40
0.5244495011189884
 40
0.5244495011189884
 10
-318.4097146785844
 20
736.0114891578473
 30
0.0
 10
-318.2379582256008
 20
736.2098171766199
 30
0.0
 10
-318.0662017726172
 20
736.4081451953925
 30
0.0
  0
SPLINE
  5
8F
330
1F
100
AcDbEntity
  8
Miura_Table_9590-51_2D
100
AcDbSpline
210
0.0
220
0.0
230
1.0
 70
     8
 71
     3
 72
    16
 73
    12
 74
     0
 42
0.0000000001
 43
0.0000000001
 40
0.0
 40
0.0
 40
0.0
 40
0.0
 40
0.1450445684408275
 40
0.2674563255525638
 40
0.5165020686838145
 40
0.7647651081847263
 40
0.9971024939488223
 40
1.19489142016583
 40
1.37708050099132
 40
1.556352254818322
 40
1.789706299665248
 40
1.789706299665248
 40
1.789706299665248
 40
1.789706299665248
 10
-318.0488297832881
 20
734.5114905168195
 30
0.0
 10
-318.088275091126
 20
734.5396321563674
 30
0.0
 10
-318.1604196263797
 20
734.5920911285616
 30
0.0
 10
-318.291020899539
 20
734.7045381982823
 30
0.0
 10
-318.429410859103
 20
734.8588915283442
 30
0.0
 10
-318.5592710913088
 20
735.0656515831715
 30
0.0
 10
-318.6414105353469
 20
735.2776999645312
 30
0.0
 10
-318.6683951449186
 20
735.481784772421
 30
0.0
 10
-318.639026343918
 20
735.6681052931569
 30
0.0
 10
-318.5504991371681
 20
735.8476535619786
 30
0.0
 10
-318.4607475344083
 20
735.9527758844647
 30
0.0
 10
-318.4097146785844
 20
736.0114891578473
 30
0.0
  0
SPLINE
  5
90
330
1F
100
AcDbEntity
  8
Miura_Table_9590-51_2D
100
AcDbSpline
210
0.0
220
0.0
230
1.0
 70
     8
 71
     3
 72
    12
 73
     8
 74
     0
 42
0.0000000001
 43
0.0000000001
 40
0.0
 40
0.0
 40
0.0
 40
0.0
 40
2.765242495116512
 40
5.467131183712467
 40
11.12386283924205
 40
16.6939552205985
 40
22.3034199774177
 40
22.3034199774177
 40
22.3034199774177
 40
22.3034199774177
 10
-297.1833222478117
 20
727.6759581995705
 30
0.0
 10
-298.1050340361453
 20
727.6847478471143
 30
0.0
 10
-299.9266177761201
 20
727.7725573447542
 30
0.0
 10
-303.6090376534275
 20
728.2280487077285
 30
0.0
 10
-308.134566443181
 20
729.3273364086522
 30
0.0
 10
-313.3338687963796
 20
731.4831401837566
 30
0.0
 10
-316.5282660913326
 20
733.4232176012904
 30
0.0
 10
-318.0488297832881
 20
734.5114905168195
 30
0.0
  0
SPLINE
  5
91
330
1F
100
AcDbEntity
  8
Miura_Table_9590-51_2D
100
AcDbSpline
210
0.0
220
0.0
230
1.0
 70
     8
 71
     5
 72
    12
 73
     6
 74
     0
 42
0.0000000001
 43
0.0000000001
 40
-1.0
 40
-1.0
 40
-1.0
 40
-1.0
 40
-1.0
 40
-1.0
 40
0.0
 40
0.0
 40
0.0
 40
0.0
 40
0.0
 40
0.0
 10
-296.8386689540012
 20
727.6743027570158
 30
0.0
 10
-296.9076004076314
 20
727.6743088746434
 30
0.0
 10
-296.9765318465597
 20
727.674480646532
 30
0.0
 10
-297.0454640249427
 20
727.6748095910616
 30
0.0
 10
-297.1143939279928
 20
727.6753008838621
 30
0.0
 10
-297.1833222478117
 20
727.6759581995705
 30
0.0
  0
SPLINE
  5
92
330
1F
100
AcDbEntity
  8
Miura_Table_9590-51_2D
100
AcDbSpline
210
0.0
220
0.0
230
1.0
 70
     8
 71
     3
 72
    11
 73
     7
 74
     0
 42
0.0000000001
 43
0.0000000001
 40
0.0
 40
0.0
 40
0.0
 40
0.0
 40
2.849025153143939
 40
5.681848556468799
 40
11.31563454753918
 40
22.64754464670963
 40
22.64754464670963
 40
22.64754464670963
 40
22.64754464670963
 10
-275.6288964529413
 20
734.51141243345
 30
0.0
 10
-276.4012246918655
 20
733.9585054049921
 30
0.0
 10
-277.9838446818148
 20
732.9151942574815
 30
0.0
 10
-281.2855726812477
 20
731.0863398399922
 30
0.0
 10
-287.4072142377499
 20
728.5672163123484
 30
0.0
 10
-293.0612131077069
 20
727.6739675099375
 30
0.0
 10
-296.8386689540012
 20
727.6743027570158
 30
0.0
  0
SPLINE
  5
93
330
1F
100
AcDbEntity
  8
Miura_Table_9590-51_2D
100
AcDbSpline
210
0.0
220
0.0
230
1.0
 70
     8
 71
     3
 72
    12
 73
     8
 74
     0
 42
0.0000000001
 43
0.0000000001
 40
0.0
 40
0.0
 40
0.0
 40
0.0
 40
0.215147148445352
 40
0.4344126759933203
 40
1.014845999299492
 40
1.738325432821743
 40
2.240259627195612
 40
2.240259627195612
 40
2.240259627195612
 40
2.240259627195612
 10
-273.9688750898604
 20
736.011296410426
 30
0.0
 10
-274.0159259474485
 20
735.9567349422555
 30
0.0
 10
-274.1117427912186
 20
735.8481061382361
 30
0.0
 10
-274.3480748802249
 20
735.6059468636101
 30
0.0
 10
-274.7200804379763
 20
735.2601966404955
 30
0.0
 10
-275.1738820248092
 20
734.8646913635828
 30
0.0
 10
-275.4920940063394
 20
734.608289837541
 30
0.0
 10
-275.6288964529413
 20
734.51141243345
 30
0.0
  0
SPLINE
  5
94
330
1F
100
AcDbEntity
  8
Miura_Table_9590-51_2D
100
AcDbSpline
210
0.0
220
0.0
230
1.0
 70
    24
 71
     2
 72
     6
 73
     3
 74
     0
 42
0.0000000001
 43
0.0000000001
 40
0.0
 40
0.0
 40
0.0
 40
0.5244136134753632
 40
0.5244136134753632
 40
0.5244136134753632
 10
-273.6253322211778
 20
736.4079853581293
 30
0.0
 10
-273.7971036555191
 20
736.2096408842776
 30
0.0
 10
-273.9688750898604
 20
736.011296410426
 30
0.0
  0
SPLINE
  5
95
330
1F
100
AcDbEntity
  8
Miura_Table_9590-51_2D
100
AcDbSpline
210
0.0
220
0.0
230
1.0
 70
     8
 71
     3
 72
    13
 73
     9
 74
     0
 42
0.0000000001
 43
0.0000000001
 40
0.0
 40
0.0
 40
0.0
 40
0.0
 40
0.0842084935809858
 40
0.1523207872208179
 40
0.275918593398183
 40
0.3976132335562294
 40
0.4611173083935368
 40
0.5436834943217632
 40
0.5436834943217632
 40
0.5436834943217632
 40
0.5436834943217632
 10
-273.7942544875414
 20
736.7614577455247
 30
0.0
 10
-273.7662831383977
 20
736.7614258454612
 30
0.0
 10
-273.715119712424
 20
736.758095121191
 30
0.0
 10
-273.6264887451425
 20
736.7329200774691
 30
0.0
 10
-273.5444355285881
 20
736.6573455748276
 30
0.0
 10
-273.5364938464672
 20
736.5473753216909
 30
0.0
 10
-273.5759292986259
 20
736.4662330942799
 30
0.0
 10
-273.6070800395864
 20
736.428621950482
 30
0.0
 10
-273.6253322211778
 20
736.4079853581293
 30
0.0
  0
SPLINE
  5
96
330
1F
100
AcDbEntity
  8
Miura_Table_9590-51_2D
100
AcDbSpline
210
0.0
220
0.0
230
1.0
 70
    12
 71
     2
 72
     6
 73
     3
 74
     0
 42
0.0000000001
 43
0.0000000001
 40
0.0
 40
0.0
 40
0.0
 40
11.69797561871451
 40
11.69797561871451
 40
11.69797561871451
 10
-11.69797530693995
 20
1104.466471386611
 30
0.0
 41
1.0
 10
-5.849093833787265
 20
1104.466471353603
 30
0.0
 41
1.0
 10
-0.0002123606354871
 20
1104.466471380505
 30
0.0
 41
1.0
  0
SPLINE
  5
97
330
1F
100
AcDbEntity
  8
Miura_Table_9590-51_2D
100
AcDbSpline
210
0.0
220
0.0
230
1.0
 70
    12
 71
     3
 72
    10
 73
     6
 74
     0
 42
0.0000000001
 43
0.0000000001
 40
-1.411401651021521
 40
-1.411401651021521
 40
-1.411401651021521
 40
-1.411401651021521
 40
-0.7080503722075561
 40
-0.7080503722075561
 40
-0.0049548029583888
 40
-0.0049548029583888
 40
-0.0049548029583888
 40
-0.0049548029583888
 10
-12.56074352844553
 20
1105.302581119912
 30
0.0
 41
1.0
 10
-12.52714964274855
 20
1105.068719381942
 30
0.0
 41
1.0
 10
-12.42319759158636
 20
1104.856734765322
 30
0.0
 41
1.0
 10
-12.10781020657396
 20
1104.550189476495
 30
0.0
 41
1.0
 10
-11.90740831737639
 20
1104.466466018621
 30
0.0
 41
1.0
 10
-11.69797530693995
 20
1104.466471386611
 30
0.0
 41
1.0
  0
SPLINE
  5
98
330
1F
100
AcDbEntity
  8
Miura_Table_9590-51_2D
100
AcDbSpline
210
0.0
220
0.0
230
1.0
 70
     8
 71
     3
 72
    18
 73
    14
 74
     0
 42
0.0000000001
 43
0.0000000001
 40
-11.35744832993483
 40
-11.35744832993483
 40
-11.35744832993483
 40
-11.35744832993483
 40
-7.387935346890758
 40
-6.716881895257425
 40
-6.413782533532999
 40
-6.129926738348679
 40
-5.827549416049516
 40
-5.506991273313297
 40
-4.870777299577194
 40
-3.713958932632885
 40
-2.530514856758515
 40
-1.285072805565842
 40
0.0
 40
0.0
 40
0.0
 40
0.0
 10
-21.65120270755415
 20
1109.466471480721
 30
0.0
 10
-20.32802257090225
 20
1109.466360489083
 30
0.0
 10
-18.78119149766644
 20
1109.466665505114
 30
0.0
 10
-17.13327648800441
 20
1109.46631703884
 30
0.0
 10
-16.71398513425447
 20
1109.466886492522
 30
0.0
 10
-16.41738650133266
 20
1109.467219428602
 30
0.0
 10
-16.1162175253794
 20
1109.436086547474
 30
0.0
 10
-15.70452936415222
 20
1109.352594363847
 30
0.0
 10
-15.03817042510036
 20
1109.113746562484
 30
0.0
 10
-14.20254755704173
 20
1108.560272669235
 30
0.0
 10
-13.4090826156571
 20
1107.653951452549
 30
0.0
 10
-12.83340723724268
 20
1106.548621957801
 30
0.0
 10
-12.62152456793046
 20
1105.726557938385
 30
0.0
 10
-12.56074352844553
 20
1105.302581119912
 30
0.0
  0
LINE
  5
99
330
1F
100
AcDbEntity
  8
Miura_Table_9590-51_2D
100
AcDbLine
 10
-23.85294376439197
 20
1109.466563824715
 30
0.0
 11
-21.65120270755415
 21
1109.466471480721
 31
0.0
  0
SPLINE
  5
9A
330
1F
100
AcDbEntity
  8
Miura_Table_9590-51_2D
100
AcDbSpline
210
0.0
220
0.0
230
1.0
 70
     8
 71
     3
 72
    15
 73
    11
 74
     0
 42
0.0000000001
 43
0.0000000001
 40
0.0
 40
0.0
 40
0.0
 40
0.0
 40
0.9361505302432512
 40
1.592389293923229
 40
2.107271700881924
 40
2.520270126564129
 40
2.899529664530077
 40
3.247808135525447
 40
3.588551735127004
 40
3.919177605417826
 40
3.919177605417826
 40
3.919177605417826
 40
3.919177605417826
 10
-25.12450981285383
 20
1106.05569298477
 30
0.0
 10
-25.11265364739938
 20
1106.36751227928
 30
0.0
 10
-25.09047666868719
 20
1106.897897085724
 30
0.0
 10
-25.0342341123378
 20
1107.598265196377
 30
0.0
 10
-24.95572246430311
 20
1108.120946292782
 30
0.0
 10
-24.84167179300857
 20
1108.542551964557
 30
0.0
 10
-24.67785674094284
 20
1108.888013984595
 30
0.0
 10
-24.45194335542783
 20
1109.167012063066
 30
0.0
 10
-24.17345661530635
 20
1109.367439035839
 30
0.0
 10
-23.96082343531089
 20
1109.443988294178
 30
0.0
 10
-23.85294376439197
 20
1109.466563824715
 30
0.0
  0
SPLINE
  5
9B
330
1F
100
AcDbEntity
  8
Miura_Table_9590-51_2D
100
AcDbSpline
210
0.0
220
0.0
230
1.0
 70
     8
 71
     5
 72
    12
 73
     6
 74
     0
 42
0.0000000001
 43
0.0000000001
 40
-1.0
 40
-1.0
 40
-1.0
 40
-1.0
 40
-1.0
 40
-1.0
 40
0.0
 40
0.0
 40
0.0
 40
0.0
 40
0.0
 40
0.0
 10
-25.15063961904798
 20
1105.302866615067
 30
0.0
 10
-25.14535140965927
 20
1105.453429715556
 30
0.0
 10
-25.14032381387733
 20
1105.604001969547
 30
0.0
 10
-25.13572893765649
 20
1105.754589956853
 30
0.0
 10
-25.13023399996291
 20
1105.905145829136
 30
0.0
 10
-25.12450981285383
 20
1106.05569298477
 30
0.0
  0
SPLINE
  5
9C
330
1F
100
AcDbEntity
  8
Miura_Table_9590-51_2D
100
AcDbSpline
210
0.0
220
0.0
230
1.0
 70
    12
 71
     2
 72
     6
 73
     3
 74
     0
 42
0.0000000001
 43
0.0000000001
 40
-0.3764503268402766
 40
-0.3764503268402766
 40
-0.3764503268402766
 40
0.0
 40
0.0
 40
0.0
 10
-25.16450434144917
 20
1104.926671882697
 30
0.0
 41
1.0
 10
-25.15724656110802
 20
1105.114757255503
 30
0.0
 41
0.9999985034549737
 10
-25.15063961904798
 20
1105.302866615067
 30
0.0
 41
1.0
  0
SPLINE
  5
9D
330
1F
100
AcDbEntity
  8
Miura_Table_9590-51_2D
100
AcDbSpline
210
0.0
220
0.0
230
1.0
 70
    12
 71
     2
 72
     6
 73
     3
 74
     0
 42
0.0000000001
 43
0.0000000001
 40
-0.8650636015552053
 40
-0.8650636015552053
 40
-0.8650636015552053
 40
0.0
 40
0.0
 40
0.0
 10
-25.20315418998969
 20
1104.06247359306
 30
0.0
 41
0.9999999999998899
 10
-25.18245262805397
 20
1104.494511170024
 30
0.0
 41
0.9999949169942275
 10
-25.16450434144917
 20
1104.926671882697
 30
0.0
 41
1.0
  0
SPLINE
  5
9E
330
1F
100
AcDbEntity
  8
Miura_Table_9590-51_2D
100
AcDbSpline
210
0.0
220
0.0
230
1.0
 70
    12
 71
     2
 72
     6
 73
     3
 74
     0
 42
0.0000000001
 43
0.0000000001
 40
0.0
 40
0.0
 40
0.0
 40
0.0174069048050353
 40
0.0174069048050353
 40
0.0174069048050353
 10
-25.20390396217408
 20
1104.045082841606
 30
0.0
 41
1.0
 10
-25.20352919290611
 20
1104.053778222278
 30
0.0
 41
0.9999999593102533
 10
-25.20315418998962
 20
1104.06247359306
 30
0.0
 41
1.0
  0
SPLINE
  5
9F
330
1F
100
AcDbEntity
  8
Miura_Table_9590-51_2D
100
AcDbSpline
210
0.0
220
0.0
230
1.0
 70
    12
 71
     2
 72
     6
 73
     3
 74
     0
 42
0.0000000001
 43
0.0000000001
 40
-0.0038962172915295
 40
-0.0038962172915295
 40
-0.0038962172915295
 40
0.0
 40
0.0
 40
0.0
 10
-25.20405249918895
 20
1104.041189409465
 30
0.0
 41
1.0
 10
-25.20398985246561
 20
1104.043136625426
 30
0.0
 41
0.9999999970873399
 10
-25.20390396217408
 20
1104.045082841606
 30
0.0
 41
1.0
  0
SPLINE
  5
A0
330
1F
100
AcDbEntity
  8
Miura_Table_9590-51_2D
100
AcDbSpline
210
0.0
220
0.0
230
1.0
 70
     8
 71
     3
 72
    15
 73
    11
 74
     0
 42
0.0000000001
 43
0.0000000001
 40
0.0
 40
0.0
 40
0.0
 40
0.0
 40
2.763377139235543
 40
5.271537957085918
 40
10.5998510122942
 40
21.59382453005134
 40
32.87822943471981
 40
38.64978450157577
 40
41.3966023543671
 40
44.15779849543482
 40
44.15779849543482
 40
44.15779849543482
 40
44.15779849543482
 10
-37.860585453358
 20
1062.234997760979
 30
0.0
 10
-37.37588947208224
 20
1063.018124450904
 30
0.0
 10
-36.45841320222553
 20
1064.517364812997
 30
0.0
 10
-34.73629597879062
 20
1067.602997122303
 30
0.0
 10
-31.9672753451041
 20
1073.240598723822
 30
0.0
 10
-28.75361731848079
 20
1081.883895706903
 30
0.0
 10
-26.61448722374007
 20
1091.004013685265
 30
0.0
 10
-25.69991076587849
 20
1097.544393017555
 30
0.0
 10
-25.35096906454328
 20
1101.288476749698
 30
0.0
 10
-25.24417480083048
 20
1103.121704054573
 30
0.0
 10
-25.20405249918895
 20
1104.041189409465
 30
0.0
  0
SPLINE
  5
A1
330
1F
100
AcDbEntity
  8
Miura_Table_9590-51_2D
100
AcDbSpline
210
0.0
220
0.0
230
1.0
 70
     8
 71
     5
 72
    12
 73
     6
 74
     0
 42
0.0000000001
 43
0.0000000001
 40
-1.0
 40
-1.0
 40
-1.0
 40
-1.0
 40
-1.0
 40
-1.0
 40
0.0
 40
0.0
 40
0.0
 40
0.0
 40
0.0
 40
0.0
 10
-37.87721928705832
 20
1062.208055145453
 30
0.0
 10
-37.87389004900342
 20
1062.213442142035
 30
0.0
 10
-37.87056091958857
 20
1062.218829205757
 30
0.0
 10
-37.8672511782288
 20
1062.224228251019
 30
0.0
 10
-37.86391823784379
 20
1062.229612957754
 30
0.0
 10
-37.860585453358
 20
1062.234997760979
 30
0.0
  0
SPLINE
  5
A2
330
1F
100
AcDbEntity
  8
Miura_Table_9590-51_2D
100
AcDbSpline
210
0.0
220
0.0
230
1.0
 70
     8
 71
     3
 72
    18
 73
    14
 74
     0
 42
0.0000000001
 43
0.0000000001
 40
0.0
 40
0.0
 40
0.0
 40
0.0
 40
1.224399517688125
 40
3.216127340650388
 40
5.359452356478953
 40
6.616257952753485
 40
8.473068222320627
 40
11.37665901709092
 40
13.15870189535763
 40
18.5887311986106
 40
21.30318735092228
 40
22.53576743944416
 40
23.95196467547641
 40
23.95196467547641
 40
23.95196467547641
 40
23.95196467547641
 10
-52.50665096721514
 20
1043.287083189852
 30
0.0
 10
-52.23975132457508
 20
1043.595855476528
 30
0.0
 10
-51.53841222842857
 20
1044.406640651121
 30
0.0
 10
-50.3702222433476
 20
1045.758284042097
 30
0.0
 10
-49.18944519123215
 20
1047.11324720013
 30
0.0
 10
-48.0390209323823
 20
1048.435073763249
 30
0.0
 10
-46.73393775429031
 20
1049.958119102939
 30
0.0
 10
-45.34309688435314
 20
1051.638146470613
 30
0.0
 10
-43.25649248572427
 20
1054.287024097081
 30
0.0
 10
-41.30113304855058
 20
1056.957762085525
 30
0.0
 10
-39.55744785552361
 20
1059.552229224444
 30
0.0
 10
-38.59092881380275
 20
1061.056240766625
 30
0.0
 10
-38.12539052080228
 20
1061.806492515868
 30
0.0
 10
-37.87721928705832
 20
1062.208055145453
 30
0.0
  0
SPLINE
  5
A3
330
1F
100
AcDbEntity
  8
Miura_Table_9590-51_2D
100
AcDbSpline
210
0.0
220
0.0
230
1.0
 70
     8
 71
     5
 72
    12
 73
     6
 74
     0
 42
0.0000000001
 43
0.0000000001
 40
-1.0
 40
-1.0
 40
-1.0
 40
-1.0
 40
-1.0
 40
-1.0
 40
0.0
 40
0.0
 40
0.0
 40
0.0
 40
0.0
 40
0.0
 10
-52.54829839391095
 20
1043.238993017415
 30
0.0
 10
-52.53996893084695
 20
1043.248611071194
 30
0.0
 10
-52.53163946778295
 20
1043.258229124972
 30
0.0
 10
-52.52329182290032
 20
1043.267831447703
 30
0.0
 10
-52.51497143958022
 20
1043.277457357263
 30
0.0
 10
-52.50665096721514
 20
1043.287083189852
 30
0.0
  0
SPLINE
  5
A4
330
1F
100
AcDbEntity
  8
Miura_Table_9590-51_2D
100
AcDbSpline
210
0.0
220
0.0
230
1.0
 70
    24
 71
     2
 72
     6
 73
     3
 74
     0
 42
0.0000000001
 43
0.0000000001
 40
0.0
 40
0.0
 40
0.0
 40
405.4330160665159
 40
405.4330160665159
 40
405.4330160665159
 10
-317.9659450783047
 20
736.760510546862
 30
0.0
 10
-185.2571217361078
 20
889.9997517821387
 30
0.0
 10
-52.54829839391095
 20
1043.238993017415
 30
0.0
  0
LINE
  5
A5
330
1F
100
AcDbEntity
  8
Miura_Table_9590-51_2D
100
AcDbLine
 10
-273.2978207079132
 20
736.7610951534639
 30
0.0
 11
-317.9659450783047
 21
736.760510546862
 31
0.0
  0
SPLINE
  5
A6
330
1F
100
AcDbEntity
  8
Miura_Table_9590-51_2D
100
AcDbSpline
210
0.0
220
0.0
230
1.0
 70
    24
 71
     2
 72
     6
 73
     3
 74
     0
 42
0.0000000001
 43
0.0000000001
 40
0.0
 40
0.0
 40
0.0
 40
382.1184799122444
 40
382.1184799122444
 40
382.1184799122444
 10
-23.14272770193202
 20
1025.615280130699
 30
0.0
 10
-148.2202742049226
 20
881.1881876420816
 30
0.0
 10
-273.2978207079132
 20
736.7610951534639
 30
0.0
  0
SPLINE
  5
A7
330
1F
100
AcDbEntity
  8
Miura_Table_9590-51_2D
100
AcDbSpline
210
0.0
220
0.0
230
1.0
 70
     8
 71
     5
 72
    12
 73
     6
 74
     0
 42
0.0000000001
 43
0.0000000001
 40
0.0
 40
0.0
 40
0.0
 40
0.0
 40
0.0
 40
0.0
 40
1.0
 40
1.0
 40
1.0
 40
1.0
 40
1.0
 40
1.0
 10
-23.12824927489419
 20
1025.631656303789
 30
0.0
 10
-23.13113593759226
 20
1025.628373114143
 30
0.0
 10
-23.13402252887681
 20
1025.625089861709
 30
0.0
 10
-23.13700374348991
 20
1025.621889587779
 30
0.0
 10
-23.13986572271097
 20
1025.618584859239
 30
0.0
 10
-23.14272770193202
 20
1025.615280130699
 30
0.0
  0
SPLINE
  5
A8
330
1F
100
AcDbEntity
  8
Miura_Table_9590-51_2D
100
AcDbSpline
210
0.0
220
0.0
230
1.0
 70
     8
 71
     3
 72
    15
 73
    11
 74
     0
 42
0.0000000001
 43
0.0000000001
 40
0.0
 40
0.0
 40
0.0
 40
0.0
 40
0.8793827298841641
 40
1.776264706140459
 40
3.639233357410877
 40
7.666287083349559
 40
9.953021317401364
 40
12.30992601284868
 40
14.68355992114336
 40
17.32695060162204
 40
17.32695060162204
 40
17.32695060162204
 40
17.32695060162204
 10
-10.20852652435224
 20
1037.068195796477
 30
0.0
 10
-10.46186959024999
 20
1036.92090626796
 30
0.0
 10
-10.96997610886046
 20
1036.616369626341
 30
0.0
 10
-11.99016867559385
 20
1035.960531296063
 30
0.0
 10
-13.84445955659885
 20
1034.661722119563
 30
0.0
 10
-15.94418193196543
 20
1032.920285469295
 30
0.0
 10
-18.07419058122559
 20
1030.966437637134
 30
0.0
 10
-19.73867716786663
 20
1029.322366528545
 30
0.0
 10
-21.43544190133343
 20
1027.543674090435
 30
0.0
 10
-22.54647285941246
 20
1026.293348542703
 30
0.0
 10
-23.12824927489419
 20
1025.631656303789
 30
0.0
  0
SPLINE
  5
A9
330
1F
100
AcDbEntity
  8
Miura_Table_9590-51_2D
100
AcDbSpline
210
0.0
220
0.0
230
1.0
 70
    12
 71
     2
 72
     6
 73
     3
 74
     0
 42
0.0000000001
 43
0.0000000001
 40
-0.1469556320606097
 40
-0.1469556320606097
 40
-0.1469556320606097
 40
0.0
 40
0.0
 40
0.0
 10
-10.0816587570198
 20
1037.142361091194
 30
0.0
 41
1.0
 10
-10.14499973390198
 20
1037.105119554056
 30
0.0
 41
0.9999969449633207
 10
-10.20852652435224
 20
1037.068195796477
 30
0.0
 41
1.0
  0
SPLINE
  5
AA
330
1F
100
AcDbEntity
  8
Miura_Table_9590-51_2D
100
AcDbSpline
210
0.0
220
0.0
230
1.0
 70
     8
 71
     5
 72
    12
 73
     6
 74
     0
 42
0.0000000001
 43
0.0000000001
 40
0.0
 40
0.0
 40
0.0
 40
0.0
 40
0.0
 40
0.0
 40
1.0
 40
1.0
 40
1.0
 40
1.0
 40
1.0
 40
1.0
 10
-10.06502878969332
 20
1037.152130583745
 30
0.0
 10
-10.06835569933264
 20
1037.150178245616
 30
0.0
 10
-10.0716821580445
 20
1037.148225139078
 30
0.0
 10
-10.07500851569785
 20
1037.146271858181
 30
0.0
 10
-10.07833347566611
 20
1037.144316201379
 30
0.0
 10
-10.0816587570198
 20
1037.142361091194
 30
0.0
  0
SPLINE
  5
AB
330
1F
100
AcDbEntity
  8
Miura_Table_9590-51_2D
100
AcDbSpline
210
0.0
220
0.0
230
1.0
 70
    12
 71
     2
 72
     6
 73
     3
 74
     0
 42
0.0000000001
 43
0.0000000001
 40
-1.059455396730206
 40
-1.059455396730206
 40
-1.059455396730206
 40
0.0
 40
0.0
 40
0.0
 10
-9.138077268464258
 20
1037.664932434848
 30
0.0
 41
1.0
 10
-9.608060415222637
 20
1037.420294398748
 30
0.0
 41
0.9996780901699671
 10
-10.06502878969332
 20
1037.152130583745
 30
0.0
 41
1.0
  0
SPLINE
  5
AC
330
1F
100
AcDbEntity
  8
Miura_Table_9590-51_2D
100
AcDbSpline
210
0.0
220
0.0
230
1.0
 70
     8
 71
     5
 72
    12
 73
     6
 74
     0
 42
0.0000000001
 43
0.0000000001
 40
-1.0
 40
-1.0
 40
-1.0
 40
-1.0
 40
-1.0
 40
-1.0
 40
0.0
 40
0.0
 40
0.0
 40
0.0
 40
0.0
 40
0.0
 10
-7.886179101621565
 20
1038.264366152539
 30
0.0
 10
-8.140460587838788
 20
1038.152994172899
 30
0.0
 10
-8.392919921901921
 20
1038.037461904832
 30
0.0
 10
-8.643466636982339
 20
1037.917187825945
 30
0.0
 10
-8.89183718403092
 20
1037.793106585518
 30
0.0
 10
-9.138077268464258
 20
1037.664932434848
 30
0.0
  0
SPLINE
  5
AD
330
1F
100
AcDbEntity
  8
Miura_Table_9590-51_2D
100
AcDbSpline
210
0.0
220
0.0
230
1.0
 70
     8
 71
     3
 72
    11
 73
     7
 74
     0
 42
0.0000000001
 43
0.0000000001
 40
-7.168114128633167
 40
-7.168114128633167
 40
-7.168114128633167
 40
-7.168114128633167
 40
-3.620644636221537
 40
-1.83413863357669
 40
-0.9078897846316704
 40
0.0
 40
0.0
 40
0.0
 40
0.0
 10
-0.9518539976625107
 20
1039.918096118144
 30
0.0
 10
-2.132894659215708
 20
1039.858562568029
 30
0.0
 10
-3.900065845601603
 20
1039.604129588615
 30
0.0
 10
-5.907992042350998
 20
1039.028288063725
 30
0.0
 10
-7.043673125822352
 20
1038.619088607749
 30
0.0
 10
-7.608985579817272
 20
1038.385773305399
 30
0.0
 10
-7.886179101621565
 20
1038.264366152539
 30
0.0
  0
SPLINE
  5
AE
330
1F
100
AcDbEntity
  8
Miura_Table_9590-51_2D
100
AcDbSpline
210
0.0
220
0.0
230
1.0
 70
    12
 71
     2
 72
     6
 73
     3
 74
     0
 42
0.0000000001
 43
0.0000000001
 40
0.0
 40
0.0
 40
0.0
 40
1.522042370303902
 40
1.522042370303902
 40
1.522042370303902
 10
-0.0002123606356052
 20
1040.916193709229
 30
0.0
 41
0.9999999691280613
 10
-0.0003450956886074
 20
1039.963597471917
 30
0.0
 41
0.7239225688158022
 10
-0.9518539976625107
 20
1039.918096118144
 30
0.0
 41
1.0
  0
SPLINE
  5
AF
330
1F
100
AcDbEntity
  8
Miura_Table_9590-51_2D
100
AcDbSpline
210
0.0
220
0.0
230
1.0
 70
    12
 71
     2
 72
     6
 73
     3
 74
     0
 42
0.0000000001
 43
0.0000000001
 40
-1.522042370303902
 40
-1.522042370303902
 40
-1.522042370303902
 40
0.0
 40
0.0
 40
0.0
 10
0.9514292763915364
 20
1039.918096118144
 30
0.0
 41
1.0
 10
-0.0000796255818667
 20
1039.963597471917
 30
0.0
 41
0.7239225688158022
 10
-0.0002123606356052
 20
1040.916193709229
 30
0.0
 41
0.9999999691280613
  0
SPLINE
  5
B0
330
1F
100
AcDbEntity
  8
Miura_Table_9590-51_2D
100
AcDbSpline
210
0.0
220
0.0
230
1.0
 70
     8
 71
     3
 72
    11
 73
     7
 74
     0
 42
0.0000000001
 43
0.0000000001
 40
0.0
 40
0.0
 40
0.0
 40
0.0
 40
0.9078897846316704
 40
1.83413863357669
 40
3.620644636221537
 40
7.168114128633167
 40
7.168114128633167
 40
7.168114128633167
 40
7.168114128633167
 10
7.885754380350591
 20
1038.264366152539
 30
0.0
 10
7.608560858546298
 20
1038.385773305399
 30
0.0
 10
7.043248404551377
 20
1038.619088607749
 30
0.0
 10
5.907567321080023
 20
1039.028288063725
 30
0.0
 10
3.899641124330628
 20
1039.604129588615
 30
0.0
 10
2.132469937944734
 20
1039.858562568029
 30
0.0
 10
0.9514292763915364
 20
1039.918096118144
 30
0.0
  0
SPLINE
  5
B1
330
1F
100
AcDbEntity
  8
Miura_Table_9590-51_2D
100
AcDbSpline
210
0.0
220
0.0
230
1.0
 70
     8
 71
     5
 72
    12
 73
     6
 74
     0
 42
0.0000000001
 43
0.0000000001
 40
0.0
 40
0.0
 40
0.0
 40
0.0
 40
0.0
 40
0.0
 40
1.0
 40
1.0
 40
1.0
 40
1.0
 40
1.0
 40
1.0
 10
9.137652547193284
 20
1037.664932434848
 30
0.0
 10
8.891412462759945
 20
1037.793106585518
 30
0.0
 10
8.643041915711365
 20
1037.917187825945
 30
0.0
 10
8.392495200630947
 20
1038.037461904832
 30
0.0
 10
8.140035866567814
 20
1038.152994172899
 30
0.0
 10
7.885754380350591
 20
1038.264366152539
 30
0.0
  0
SPLINE
  5
B2
330
1F
100
AcDbEntity
  8
Miura_Table_9590-51_2D
100
AcDbSpline
210
0.0
220
0.0
230
1.0
 70
    12
 71
     2
 72
     6
 73
     3
 74
     0
 42
0.0000000001
 43
0.0000000001
 40
0.0
 40
0.0
 40
0.0
 40
1.059455396730206
 40
1.059455396730206
 40
1.059455396730206
 10
10.06460406842234
 20
1037.152130583745
 30
0.0
 41
1.0
 10
9.60763569395128
 20
1037.420294398748
 30
0.0
 41
0.9996780901699671
 10
9.137652547193284
 20
1037.664932434848
 30
0.0
 41
1.0
  0
SPLINE
  5
B3
330
1F
100
AcDbEntity
  8
Miura_Table_9590-51_2D
100
AcDbSpline
210
0.0
220
0.0
230
1.0
 70
     8
 71
     5
 72
    12
 73
     6
 74
     0
 42
0.0000000001
 43
0.0000000001
 40
-1.0
 40
-1.0
 40
-1.0
 40
-1.0
 40
-1.0
 40
-1.0
 40
0.0
 40
0.0
 40
0.0
 40
0.0
 40
0.0
 40
0.0
 10
10.08123403574882
 20
1037.142361091194
 30
0.0
 10
10.07790875439514
 20
1037.144316201379
 30
0.0
 10
10.07458379442687
 20
1037.146271858181
 30
0.0
 10
10.07125743677352
 20
1037.148225139078
 30
0.0
 10
10.06793097806167
 20
1037.150178245616
 30
0.0
 10
10.06460406842234
 20
1037.152130583745
 30
0.0
  0
SPLINE
  5
B4
330
1F
100
AcDbEntity
  8
Miura_Table_9590-51_2D
100
AcDbSpline
210
0.0
220
0.0
230
1.0
 70
    12
 71
     2
 72
     6
 73
     3
 74
     0
 42
0.0000000001
 43
0.0000000001
 40
0.0
 40
0.0
 40
0.0
 40
0.1469556320606097
 40
0.1469556320606097
 40
0.1469556320606097
 10
10.20810180308126
 20
1037.068195796477
 30
0.0
 41
1.0
 10
10.14457501263129
 20
1037.105119554056
 30
0.0
 41
0.9999969449633207
 10
10.08123403574882
 20
1037.142361091194
 30
0.0
 41
1.0
  0
SPLINE
  5
B5
330
1F
100
AcDbEntity
  8
Miura_Table_9590-51_2D
100
AcDbSpline
210
0.0
220
0.0
230
1.0
 70
     8
 71
     3
 72
    15
 73
    11
 74
     0
 42
0.0000000001
 43
0.0000000001
 40
-17.32695060162204
 40
-17.32695060162204
 40
-17.32695060162204
 40
-17.32695060162204
 40
-14.68355992114336
 40
-12.30992601284868
 40
-9.953021317401364
 40
-7.666287083349559
 40
-3.639233357410877
 40
-1.776264706140459
 40
-0.8793827298841641
 40
0.0
 40
0.0
 40
0.0
 40
0.0
 10
23.12782455362321
 20
1025.631656303789
 30
0.0
 10
22.54604813814149
 20
1026.293348542703
 30
0.0
 10
21.43501718006246
 20
1027.543674090435
 30
0.0
 10
19.73825244659565
 20
1029.322366528545
 30
0.0
 10
18.07376585995462
 20
1030.966437637134
 30
0.0
 10
15.94375721069446
 20
1032.920285469295
 30
0.0
 10
13.84403483532788
 20
1034.661722119563
 30
0.0
 10
11.98974395432288
 20
1035.960531296063
 30
0.0
 10
10.96955138758949
 20
1036.616369626341
 30
0.0
 10
10.46144486897902
 20
1036.92090626796
 30
0.0
 10
10.20810180308126
 20
1037.068195796477
 30
0.0
  0
SPLINE
  5
B6
330
1F
100
AcDbEntity
  8
Miura_Table_9590-51_2D
100
AcDbSpline
210
0.0
220
0.0
230
1.0
 70
     8
 71
     5
 72
    12
 73
     6
 74
     0
 42
0.0000000001
 43
0.0000000001
 40
-1.0
 40
-1.0
 40
-1.0
 40
-1.0
 40
-1.0
 40
-1.0
 40
0.0
 40
0.0
 40
0.0
 40
0.0
 40
0.0
 40
0.0
 10
23.14230298066104
 20
1025.615280130699
 30
0.0
 10
23.13944100143999
 20
1025.618584859239
 30
0.0
 10
23.13657902221894
 20
1025.621889587779
 30
0.0
 10
23.13359780760584
 20
1025.625089861709
 30
0.0
 10
23.13071121632129
 20
1025.628373114143
 30
0.0
 10
23.12782455362321
 20
1025.631656303789
 30
0.0
  0
SPLINE
  5
B7
330
1F
100
AcDbEntity
  8
Miura_Table_9590-51_2D
100
AcDbSpline
210
0.0
220
0.0
230
1.0
 70
    24
 71
     2
 72
     6
 73
     3
 74
     0
 42
0.0000000001
 43
0.0000000001
 40
-382.1184799122444
 40
-382.1184799122444
 40
-382.1184799122444
 40
0.0
 40
0.0
 40
0.0
 10
273.2973959866422
 20
736.7610951534639
 30
0.0
 10
148.2198494836516
 20
881.1881876420816
 30
0.0
 10
23.14230298066104
 20
1025.615280130699
 30
0.0
  0
LINE
  5
B8
330
1F
100
AcDbEntity
  8
Miura_Table_9590-51_2D
100
AcDbLine
 10
317.9655203570337
 20
736.760510546862
 30
0.0
 11
273.2973959866422
 21
736.7610951534639
 31
0.0
  0
SPLINE
  5
B9
330
1F
100
AcDbEntity
  8
Miura_Table_9590-51_2D
100
AcDbSpline
210
0.0
220
0.0
230
1.0
 70
    24
 71
     2
 72
     6
 73
     3
 74
     0
 42
0.0000000001
 43
0.0000000001
 40
-405.4330160665159
 40
-405.4330160665159
 40
-405.4330160665159
 40
0.0
 40
0.0
 40
0.0
 10
52.54787367263998
 20
1043.238993017415
 30
0.0
 10
185.2566970148368
 20
889.9997517821387
 30
0.0
 10
317.9655203570337
 20
736.760510546862
 30
0.0
  0
SPLINE
  5
BA
330
1F
100
AcDbEntity
  8
Miura_Table_9590-51_2D
100
AcDbSpline
210
0.0
220
0.0
230
1.0
 70
     8
 71
     5
 72
    12
 73
     6
 74
     0
 42
0.0000000001
 43
0.0000000001
 40
0.0
 40
0.0
 40
0.0
 40
0.0
 40
0.0
 40
0.0
 40
1.0
 40
1.0
 40
1.0
 40
1.0
 40
1.0
 40
1.0
 10
52.50622624594416
 20
1043.287083189852
 30
0.0
 10
52.51454671830925
 20
1043.277457357263
 30
0.0
 10
52.52286710162934
 20
1043.267831447703
 30
0.0
 10
52.53121474651198
 20
1043.258229124972
 30
0.0
 10
52.53954420957598
 20
1043.248611071194
 30
0.0
 10
52.54787367263998
 20
1043.238993017415
 30
0.0
  0
SPLINE
  5
BB
330
1F
100
AcDbEntity
  8
Miura_Table_9590-51_2D
100
AcDbSpline
210
0.0
220
0.0
230
1.0
 70
     8
 71
     3
 72
    18
 73
    14
 74
     0
 42
0.0000000001
 43
0.0000000001
 40
-23.95196467547641
 40
-23.95196467547641
 40
-23.95196467547641
 40
-23.95196467547641
 40
-22.53576743944416
 40
-21.30318735092228
 40
-18.5887311986106
 40
-13.15870189535763
 40
-11.37665901709092
 40
-8.473068222320627
 40
-6.616257952753485
 40
-5.359452356478953
 40
-3.216127340650388
 40
-1.224399517688125
 40
0.0
 40
0.0
 40
0.0
 40
0.0
 10
37.87679456578735
 20
1062.208055145453
 30
0.0
 10
38.12496579953131
 20
1061.806492515868
 30
0.0
 10
38.59050409253177
 20
1061.056240766625
 30
0.0
 10
39.55702313425263
 20
1059.552229224444
 30
0.0
 10
41.30070832727961
 20
1056.957762085525
 30
0.0
 10
43.25606776445329
 20
1054.287024097081
 30
0.0
 10
45.34267216308217
 20
1051.638146470613
 30
0.0
 10
46.73351303301934
 20
1049.958119102939
 30
0.0
 10
48.03859621111133
 20
1048.435073763249
 30
0.0
 10
49.18902046996118
 20
1047.11324720013
 30
0.0
 10
50.36979752207662
 20
1045.758284042097
 30
0.0
 10
51.5379875071576
 20
1044.406640651121
 30
0.0
 10
52.23932660330411
 20
1043.595855476528
 30
0.0
 10
52.50622624594416
 20
1043.287083189852
 30
0.0
  0
SPLINE
  5
BC
330
1F
100
AcDbEntity
  8
Miura_Table_9590-51_2D
100
AcDbSpline
210
0.0
220
0.0
230
1.0
 70
     8
 71
     5
 72
    12
 73
     6
 74
     0
 42
0.0000000001
 43
0.0000000001
 40
0.0
 40
0.0
 40
0.0
 40
0.0
 40
0.0
 40
0.0
 40
1.0
 40
1.0
 40
1.0
 40
1.0
 40
1.0
 40
1.0
 10
37.86016073208702
 20
1062.234997760979
 30
0.0
 10
37.86349351657282
 20
1062.229612957754
 30
0.0
 10
37.86682645695782
 20
1062.224228251019
 30
0.0
 10
37.8701361983176
 20
1062.218829205757
 30
0.0
 10
37.87346532773245
 20
1062.213442142035
 30
0.0
 10
37.87679456578735
 20
1062.208055145453
 30
0.0
  0
SPLINE
  5
BD
330
1F
100
AcDbEntity
  8
Miura_Table_9590-51_2D
100
AcDbSpline
210
0.0
220
0.0
230
1.0
 70
     8
 71
     3
 72
    15
 73
    11
 74
     0
 42
0.0000000001
 43
0.0000000001
 40
-44.15779849543482
 40
-44.15779849543482
 40
-44.15779849543482
 40
-44.15779849543482
 40
-41.3966023543671
 40
-38.64978450157577
 40
-32.87822943471981
 40
-21.59382453005134
 40
-10.5998510122942
 40
-5.271537957085918
 40
-2.763377139235543
 40
0.0
 40
0.0
 40
0.0
 40
0.0
 10
25.20362777791797
 20
1104.041189409465
 30
0.0
 10
25.2437500795595
 20
1103.121704054573
 30
0.0
 10
25.3505443432723
 20
1101.288476749698
 30
0.0
 10
25.69948604460751
 20
1097.544393017555
 30
0.0
 10
26.6140625024691
 20
1091.004013685265
 30
0.0
 10
28.75319259720982
 20
1081.883895706903
 30
0.0
 10
31.96685062383312
 20
1073.240598723822
 30
0.0
 10
34.73587125751965
 20
1067.602997122303
 30
0.0
 10
36.45798848095455
 20
1064.517364812997
 30
0.0
 10
37.37546475081126
 20
1063.018124450904
 30
0.0
 10
37.86016073208702
 20
1062.234997760979
 30
0.0
  0
SPLINE
  5
BE
330
1F
100
AcDbEntity
  8
Miura_Table_9590-51_2D
100
AcDbSpline
210
0.0
220
0.0
230
1.0
 70
    12
 71
     2
 72
     6
 73
     3
 74
     0
 42
0.0000000001
 43
0.0000000001
 40
0.0
 40
0.0
 40
0.0
 40
0.0038962172915295
 40
0.0038962172915295
 40
0.0038962172915295
 10
25.20347924090311
 20
1104.045082841606
 30
0.0
 41
1.0
 10
25.20356513119452
 20
1104.043136625426
 30
0.0
 41
0.9999999970873399
 10
25.20362777791797
 20
1104.041189409465
 30
0.0
 41
1.0
  0
SPLINE
  5
BF
330
1F
100
AcDbEntity
  8
Miura_Table_9590-51_2D
100
AcDbSpline
210
0.0
220
0.0
230
1.0
 70
    12
 71
     2
 72
     6
 73
     3
 74
     0
 42
0.0000000001
 43
0.0000000001
 40
-0.0174069048050353
 40
-0.0174069048050353
 40
-0.0174069048050353
 40
0.0
 40
0.0
 40
0.0
 10
25.20272946871864
 20
1104.06247359306
 30
0.0
 41
1.0
 10
25.20310447163471
 20
1104.053778222278
 30
0.0
 41
0.9999999593102533
 10
25.20347924090311
 20
1104.045082841606
 30
0.0
 41
1.0
  0
SPLINE
  5
C0
330
1F
100
AcDbEntity
  8
Miura_Table_9590-51_2D
100
AcDbSpline
210
0.0
220
0.0
230
1.0
 70
    12
 71
     2
 72
     6
 73
     3
 74
     0
 42
0.0000000001
 43
0.0000000001
 40
0.0
 40
0.0
 40
0.0
 40
0.8650636015552053
 40
0.8650636015552053
 40
0.8650636015552053
 10
25.1640796201782
 20
1104.926671882697
 30
0.0
 41
1.0
 10
25.18202790678284
 20
1104.494511170024
 30
0.0
 41
0.9999949169942275
 10
25.20272946871867
 20
1104.06247359306
 30
0.0
 41
0.9999999999998899
  0
SPLINE
  5
C1
330
1F
100
AcDbEntity
  8
Miura_Table_9590-51_2D
100
AcDbSpline
210
0.0
220
0.0
230
1.0
 70
    12
 71
     2
 72
     6
 73
     3
 74
     0
 42
0.0000000001
 43
0.0000000001
 40
0.0
 40
0.0
 40
0.0
 40
0.3764503268402766
 40
0.3764503268402766
 40
0.3764503268402766
 10
25.150214897777
 20
1105.302866615067
 30
0.0
 41
1.0
 10
25.15682183983749
 20
1105.114757255503
 30
0.0
 41
0.9999985034549737
 10
25.1640796201782
 20
1104.926671882697
 30
0.0
 41
1.0
  0
SPLINE
  5
C2
330
1F
100
AcDbEntity
  8
Miura_Table_9590-51_2D
100
AcDbSpline
210
0.0
220
0.0
230
1.0
 70
     8
 71
     5
 72
    12
 73
     6
 74
     0
 42
0.0000000001
 43
0.0000000001
 40
0.0
 40
0.0
 40
0.0
 40
0.0
 40
0.0
 40
0.0
 40
1.0
 40
1.0
 40
1.0
 40
1.0
 40
1.0
 40
1.0
 10
25.12408509158286
 20
1106.05569298477
 30
0.0
 10
25.12980927869194
 20
1105.905145829136
 30
0.0
 10
25.13530421638552
 20
1105.754589956853
 30
0.0
 10
25.13989909260636
 20
1105.604001969547
 30
0.0
 10
25.1449266883883
 20
1105.453429715556
 30
0.0
 10
25.150214897777
 20
1105.302866615067
 30
0.0
  0
SPLINE
  5
C3
330
1F
100
AcDbEntity
  8
Miura_Table_9590-51_2D
100
AcDbSpline
210
0.0
220
0.0
230
1.0
 70
     8
 71
     3
 72
    15
 73
    11
 74
     0
 42
0.0000000001
 43
0.0000000001
 40
-3.919177605417826
 40
-3.919177605417826
 40
-3.919177605417826
 40
-3.919177605417826
 40
-3.588551735127004
 40
-3.247808135525447
 40
-2.899529664530077
 40
-2.520270126564129
 40
-2.107271700881924
 40
-1.592389293923229
 40
-0.9361505302432512
 40
0.0
 40
0.0
 40
0.0
 40
0.0
 10
23.85251904312099
 20
1109.466563824715
 30
0.0
 10
23.96039871403991
 20
1109.443988294178
 30
0.0
 10
24.17303189403538
 20
1109.367439035839
 30
0.0
 10
24.45151863415686
 20
1109.167012063066
 30
0.0
 10
24.67743201967187
 20
1108.888013984595
 30
0.0
 10
24.8412470717376
 20
1108.542551964557
 30
0.0
 10
24.95529774303213
 20
1108.120946292782
 30
0.0
 10
25.03380939106682
 20
1107.598265196377
 30
0.0
 10
25.09005194741621
 20
1106.897897085724
 30
0.0
 10
25.11222892612841
 20
1106.36751227928
 30
0.0
 10
25.12408509158286
 20
1106.05569298477
 30
0.0
  0
LINE
  5
C4
330
1F
100
AcDbEntity
  8
Miura_Table_9590-51_2D
100
AcDbLine
 10
21.65077798628317
 20
1109.466471480721
 30
0.0
 11
23.85251904312099
 21
1109.466563824715
 31
0.0
  0
SPLINE
  5
C5
330
1F
100
AcDbEntity
  8
Miura_Table_9590-51_2D
100
AcDbSpline
210
0.0
220
0.0
230
1.0
 70
     8
 71
     3
 72
    18
 73
    14
 74
     0
 42
0.0000000001
 43
0.0000000001
 40
0.0
 40
0.0
 40
0.0
 40
0.0
 40
1.285072805565842
 40
2.530514856758515
 40
3.713958932632885
 40
4.870777299577194
 40
5.506991273313297
 40
5.827549416049516
 40
6.129926738348679
 40
6.413782533532999
 40
6.716881895257425
 40
7.387935346890758
 40
11.35744832993483
 40
11.35744832993483
 40
11.35744832993483
 40
11.35744832993483
 10
12.56031880717455
 20
1105.302581119912
 30
0.0
 10
12.62109984665949
 20
1105.726557938385
 30
0.0
 10
12.83298251597171
 20
1106.548621957801
 30
0.0
 10
13.40865789438612
 20
1107.653951452549
 30
0.0
 10
14.20212283577075
 20
1108.560272669235
 30
0.0
 10
15.03774570382939
 20
1109.113746562484
 30
0.0
 10
15.70410464288125
 20
1109.352594363847
 30
0.0
 10
16.11579280410842
 20
1109.436086547474
 30
0.0
 10
16.41696178006168
 20
1109.467219428602
 30
0.0
 10
16.7135604129835
 20
1109.466886492522
 30
0.0
 10
17.13285176673344
 20
1109.46631703884
 30
0.0
 10
18.78076677639547
 20
1109.466665505114
 30
0.0
 10
20.32759784963127
 20
1109.466360489083
 30
0.0
 10
21.65077798628317
 20
1109.466471480721
 30
0.0
  0
SPLINE
  5
C6
330
1F
100
AcDbEntity
  8
Miura_Table_9590-51_2D
100
AcDbSpline
210
0.0
220
0.0
230
1.0
 70
    12
 71
     3
 72
    10
 73
     6
 74
     0
 42
0.0000000001
 43
0.0000000001
 40
0.0049548029583888
 40
0.0049548029583888
 40
0.0049548029583888
 40
0.0049548029583888
 40
0.7080503722075561
 40
0.7080503722075561
 40
1.411401651021521
 40
1.411401651021521
 40
1.411401651021521
 40
1.411401651021521
 10
11.69755058566898
 20
1104.466471386611
 30
0.0
 41
1.0
 10
11.90698359610542
 20
1104.466466018621
 30
0.0
 41
1.0
 10
12.10738548530298
 20
1104.550189476495
 30
0.0
 41
1.0
 10
12.42277287031538
 20
1104.856734765322
 30
0.0
 41
1.0
 10
12.52672492147758
 20
1105.068719381942
 30
0.0
 41
1.0
 10
12.56031880717455
 20
1105.302581119912
 30
0.0
 41
1.0
  0
SPLINE
  5
C7
330
1F
100
AcDbEntity
  8
Miura_Table_9590-51_2D
100
AcDbSpline
210
0.0
220
0.0
230
1.0
 70
    12
 71
     2
 72
     6
 73
     3
 74
     0
 42
0.0000000001
 43
0.0000000001
 40
-11.69797561871451
 40
-11.69797561871451
 40
-11.69797561871451
 40
0.0
 40
0.0
 40
0.0
 10
-0.0002123606354871
 20
1104.466471380505
 30
0.0
 41
1.0
 10
5.848669112516291
 20
1104.466471353603
 30
0.0
 41
1.0
 10
11.69755058566898
 20
1104.466471386611
 30
0.0
 41
1.0
  0
SPLINE
  5
C8
330
1F
100
AcDbEntity
  8
Miura_Table_9590-51_2D
100
AcDbSpline
210
0.0
220
0.0
230
1.0
 70
    24
 71
     2
 72
     6
 73
     3
 74
     0
 42
0.0000000001
 43
0.0000000001
 40
0.0
 40
0.0
 40
0.0
 40
286.5590223823228
 40
286.5590223823228
 40
286.5590223823228
 10
-25.13000084797841
 20
736.7615523752947
 30
0.0
 10
-25.13000084797841
 20
880.0410635664562
 30
0.0
 10
-25.13000084797841
 20
1023.320574757617
 30
0.0
  0
LINE
  5
C9
330
1F
100
AcDbEntity
  8
Miura_Table_9590-51_2D
100
AcDbLine
 10
25.13000147152798
 20
736.7615523752947
 30
0.0
 11
-25.13000084797841
 21
736.7615523752947
 31
0.0
  0
SPLINE
  5
CA
330
1F
100
AcDbEntity
  8
Miura_Table_9590-51_2D
100
AcDbSpline
210
0.0
220
0.0
230
1.0
 70
    24
 71
     2
 72
     6
 73
     3
 74
     0
 42
0.0000000001
 43
0.0000000001
 40
0.0
 40
0.0
 40
0.0
 40
286.5590223823231
 40
286.5590223823231
 40
286.5590223823231
 10
25.13000147152798
 20
1023.320574757618
 30
0.0
 10
25.13000147152798
 20
880.0410635664564
 30
0.0
 10
25.13000147152798
 20
736.7615523752947
 30
0.0
  0
SPLINE
  5
CB
330
1F
100
AcDbEntity
  8
Miura_Table_9590-51_2D
100
AcDbSpline
210
0.0
220
0.0
230
1.0
 70
     8
 71
     3
 72
    12
 73
     8
 74
     0
 42
0.0000000001
 43
0.0000000001
 40
0.0
 40
0.0
 40
0.0
 40
0.0
 40
0.0709674213477591
 40
0.1335862693837825
 40
0.2813937667596485
 40
0.4525062216997117
 40
0.627356896276153
 40
0.627356896276153
 40
0.627356896276153
 40
0.627356896276153
 10
-25.00001845605311
 20
736.4079989072939
 30
0.0
 10
-25.00012779214467
 20
736.4316177022208
 30
0.0
 10
-24.99914452395751
 20
736.4764735322512
 30
0.0
 10
-24.96723534956527
 20
736.5662534024143
 30
0.0
 10
-24.87928072717568
 20
736.6617055457591
 30
0.0
 10
-24.732417578286
 20
736.7404137768108
 30
0.0
 10
-24.61702595617407
 20
736.7593460006583
 30
0.0
 10
-24.55885293653046
 20
736.760826620005
 30
0.0
  0
SPLINE
  5
CC
330
1F
100
AcDbEntity
  8
Miura_Table_9590-51_2D
100
AcDbSpline
210
0.0
220
0.0
230
1.0
 70
    24
 71
     2
 72
     6
 73
     3
 74
     0
 42
0.0000000001
 43
0.0000000001
 40
0.0
 40
0.0
 40
0.0
 40
0.3964465280207605
 40
0.3964465280207605
 40
0.3964465280207605
 10
-24.99999168985505
 20
736.0115523794504
 30
0.0
 10
-25.00000507295408
 20
736.2097756433722
 30
0.0
 10
-25.00001845605311
 20
736.4079989072939
 30
0.0
  0
SPLINE
  5
CD
330
1F
100
AcDbEntity
  8
Miura_Table_9590-51_2D
100
AcDbSpline
210
0.0
220
0.0
230
1.0
 70
     8
 71
     3
 72
    17
 73
    13
 74
     0
 42
0.0000000001
 43
0.0000000001
 40
0.0
 40
0.0
 40
0.0
 40
0.0
 40
0.1433371388019954
 40
0.2741217048581911
 40
0.5698915548391688
 40
0.8911637673394632
 40
1.191151497005835
 40
1.428512647803872
 40
1.628463248151064
 40
1.79281401023468
 40
1.87084582755943
 40
1.966221106772802
 40
1.966221106772802
 40
1.966221106772802
 40
1.966221106772802
 10
-23.83922918809458
 20
734.5111932054169
 30
0.0
 10
-23.8803556190951
 20
734.5368078406023
 30
0.0
 10
-23.95751269938955
 20
734.5858111750558
 30
0.0
 10
-24.11165639704541
 20
734.6969853649841
 30
0.0
 10
-24.30244871973537
 20
734.8577789647461
 30
0.0
 10
-24.52043363332905
 20
735.0723472460118
 30
0.0
 10
-24.70789076932579
 20
735.2890391814503
 30
0.0
 10
-24.84985039086769
 20
735.4900371221313
 30
0.0
 10
-24.94381514257748
 20
735.6679408095335
 30
0.0
 10
-24.98705086623158
 20
735.8097732167987
 30
0.0
 10
-24.99963398884302
 20
735.9219583315166
 30
0.0
 10
-25.0000926806606
 20
735.9797355105163
 30
0.0
 10
-24.99999168985505
 20
736.0115523794504
 30
0.0
  0
SPLINE
  5
CE
330
1F
100
AcDbEntity
  8
Miura_Table_9590-51_2D
100
AcDbSpline
210
0.0
220
0.0
230
1.0
 70
     8
 71
     3
 72
    24
 73
    20
 74
     0
 42
0.0000000001
 43
0.0000000001
 40
0.0
 40
0.0
 40
0.0
 40
0.0
 40
0.0020036009973828
 40
0.0022547111946161
 40
0.0025058213907338
 40
0.0056257993892326
 40
0.0112405324588038
 40
0.0196887687594485
 40
0.0391810618505631
 40
0.0782064054519545
 40
0.1883614775428985
 40
0.3719392572588333
 40
0.7758219388728826
 40
1.546888493387028
 40
3.125770128814666
 40
6.302017912357493
 40
12.52633999402473
 40
18.76876323823666
 40
25.12637023077661
 40
25.12637023077661
 40
25.12637023077661
 40
25.12637023077661
 10
0.0002385766783846
 20
727.6743027578282
 30
0.0
 10
-0.000431388261859
 20
727.6743027554162
 30
0.0
 10
-0.0013814655403621
 20
727.6743027832574
 30
0.0
 10
-0.0015540261447313
 20
727.6743026926347
 30
0.0
 10
-0.001751428640091
 20
727.6743028166784
 30
0.0
 10
-0.0056047590933304
 20
727.6743029822464
 30
0.0
 10
-0.0107352989271021
 20
727.6743038193483
 30
0.0
 10
-0.0223819561779237
 20
727.6743075454203
 30
0.0
 10
-0.0441539371731778
 20
727.6743214864523
 30
0.0
 10
-0.1008786728361883
 20
727.6743939597757
 30
0.0
 10
-0.2114962550240307
 20
727.6747216714507
 30
0.0
 10
-0.44418548368958
 20
727.676173011245
 30
0.0
 10
-0.8969076456560288
 20
727.6819731672194
 30
0.0
 10
-1.814613149635989
 20
727.70576500023
 30
0.0
 10
-3.654403157882371
 20
727.8017761782871
 30
0.0
 10
-7.296441314317235
 20
728.1842996499838
 30
0.0
 10
-12.40936913035694
 20
729.2694020377362
 30
0.0
 10
-18.32235610084081
 20
731.4139628885071
 30
0.0
 10
-22.04132580201531
 20
733.3881415263463
 30
0.0
 10
-23.83922918809458
 20
734.5111932054169
 30
0.0
  0
SPLINE
  5
CF
330
1F
100
AcDbEntity
  8
Miura_Table_9590-51_2D
100
AcDbSpline
210
0.0
220
0.0
230
1.0
 70
     8
 71
     3
 72
    25
 73
    21
 74
     0
 42
0.0000000001
 43
0.0000000001
 40
0.0
 40
0.0
 40
0.0
 40
0.0
 40
3.199464847565258
 40
6.339105644558495
 40
12.50811986083845
 40
18.76914410145589
 40
21.92709824290088
 40
23.5426726790446
 40
24.35047809908063
 40
24.73600031715062
 40
24.93791509714551
 40
25.02970318784148
 40
25.08478241549296
 40
25.10542804074601
 40
25.11450266261522
 40
25.12044633183926
 40
25.1237624889977
 40
25.12411320300106
 40
25.12426471033862
 40
25.12576885809665
 40
25.12576885809665
 40
25.12576885809665
 40
25.12576885809665
 10
23.83903595549873
 20
734.51107044837
 30
0.0
 10
22.93409061299099
 20
733.9456720060014
 30
0.0
 10
21.10216963154653
 20
732.8900048451956
 30
0.0
 10
17.35060767958657
 20
731.0650728997541
 30
0.0
 10
12.46235462658387
 20
729.2855842402607
 30
0.0
 10
7.369079324375889
 20
728.1957354068281
 30
0.0
 10
3.709330417430465
 20
727.8062452850772
 30
0.0
 10
1.851280898302321
 20
727.7068768107033
 30
0.0
 10
0.9152639214016745
 20
727.6823201146715
 30
0.0
 10
0.4502290392420036
 20
727.6762258963274
 30
0.0
 10
0.2238244808968375
 20
727.6747857151256
 30
0.0
 10
0.1075669070442018
 20
727.6744086058195
 30
0.0
 10
0.0517292836730121
 20
727.6743283289511
 30
0.0
 10
0.0234633573991232
 20
727.6743075764073
 30
0.0
 10
0.0115754177404597
 20
727.6743041663408
 30
0.0
 10
0.0055053786809367
 20
727.6743029095246
 30
0.0
 10
0.0021275729604895
 20
727.6743028501828
 30
0.0
 10
0.0015005478117018
 20
727.6743026901377
 30
0.0
 10
0.0014900110636518
 20
727.6743027747345
 30
0.0
 10
0.0007269131547218
 20
727.6743027553584
 30
0.0
 10
0.0002385766783846
 20
727.6743027578282
 30
0.0
  0
SPLINE
  5
D0
330
1F
100
AcDbEntity
  8
Miura_Table_9590-51_2D
100
AcDbSpline
210
0.0
220
0.0
230
1.0
 70
    24
 71
     2
 72
     6
 73
     3
 74
     0
 42
0.0000000001
 43
0.0000000001
 40
0.0
 40
0.0
 40
0.0
 40
0.0002289742124082
 40
0.0002289742124082
 40
0.0002289742124082
 10
23.83975727332563
 20
734.5115228115649
 30
0.0
 10
23.83939661441218
 20
734.5112966299674
 30
0.0
 10
23.83903595549873
 20
734.51107044837
 30
0.0
  0
SPLINE
  5
D1
330
1F
100
AcDbEntity
  8
Miura_Table_9590-51_2D
100
AcDbSpline
210
0.0
220
0.0
230
1.0
 70
     8
 71
     3
 72
    17
 73
    13
 74
     0
 42
0.0000000001
 43
0.0000000001
 40
0.0
 40
0.0
 40
0.0
 40
0.0
 40
0.096206427153708
 40
0.1738289297860724
 40
0.3373064891875309
 40
0.5367070411388807
 40
0.7755987407383814
 40
1.076140845210542
 40
1.39684904123019
 40
1.692620935227463
 40
1.823404523224021
 40
1.966221085738925
 40
1.966221085738925
 40
1.966221085738925
 40
1.966221085738925
 10
24.99999231340462
 20
736.0115523794504
 30
0.0
 10
25.00007599933269
 20
735.9794697543016
 30
0.0
 10
24.99963648657013
 20
735.9215340689316
 30
0.0
 10
24.98693521240239
 20
735.8095272982562
 30
0.0
 10
24.94391938789977
 20
735.6682705942176
 30
0.0
 10
24.85004070244213
 20
735.490285260986
 30
0.0
 10
24.70778194457398
 20
735.2888623859783
 30
0.0
 10
24.51994455287513
 20
735.071831660377
 30
0.0
 10
24.3019228918256
 20
734.857304115847
 30
0.0
 10
24.11124786000619
 20
734.696663203765
 30
0.0
 10
23.95722399971419
 20
734.5856179361526
 30
0.0
 10
23.88020793376745
 20
734.5367179029508
 30
0.0
 10
23.83975727332563
 20
734.5115228115649
 30
0.0
  0
SPLINE
  5
D2
330
1F
100
AcDbEntity
  8
Miura_Table_9590-51_2D
100
AcDbSpline
210
0.0
220
0.0
230
1.0
 70
    24
 71
     2
 72
     6
 73
     3
 74
     0
 42
0.0000000001
 43
0.0000000001
 40
0.0
 40
0.0
 40
0.0
 40
0.3964465280207605
 40
0.3964465280207605
 40
0.3964465280207605
 10
25.00001907960268
 20
736.4079989072939
 30
0.0
 10
25.00000569650365
 20
736.2097756433722
 30
0.0
 10
24.99999231340462
 20
736.0115523794504
 30
0.0
  0
SPLINE
  5
D3
330
1F
100
AcDbEntity
  8
Miura_Table_9590-51_2D
100
AcDbSpline
210
0.0
220
0.0
230
1.0
 70
     8
 71
     3
 72
    13
 73
     9
 74
     0
 42
0.0000000001
 43
0.0000000001
 40
0.0
 40
0.0
 40
0.0
 40
0.0
 40
0.0902185093720015
 40
0.1761896831588625
 40
0.3455633168783852
 40
0.4948657949572023
 40
0.556563259372795
 40
0.627356624861584
 40
0.627356624861584
 40
0.627356624861584
 40
0.627356624861584
 10
24.55885381686949
 20
736.7608325666008
 30
0.0
 10
24.58893150645326
 20
736.7597758229392
 30
0.0
 10
24.64749837356158
 20
736.7546123135935
 30
0.0
 10
24.75960680516619
 20
736.7256944737021
 30
0.0
 10
24.87975929685217
 20
736.6614635160308
 30
0.0
 10
24.96742215826907
 20
736.5659808729301
 30
0.0
 10
24.99927343375657
 20
736.4760510328533
 30
0.0
 10
25.00003015807579
 20
736.4315607454807
 30
0.0
 10
25.00001907960268
 20
736.4079989072939
 30
0.0
  0
SPLINE
  5
D4
330
1F
100
AcDbEntity
  8
Miura_Table_9590-51_2D
100
AcDbSpline
210
0.0
220
0.0
230
1.0
 70
     8
 71
     3
 72
    12
 73
     8
 74
     0
 42
0.0000000001
 43
0.0000000001
 40
0.0
 40
0.0
 40
0.0
 40
0.0
 40
0.0890023797843848
 40
0.1797960093845599
 40
0.411193526615116
 40
0.6556287843923315
 40
0.8529811660911646
 40
0.8529811660911646
 40
0.8529811660911646
 40
0.8529811660911646
 10
318.0659897584792
 20
736.4081451953925
 30
0.0
 10
318.0466777964884
 20
736.430872999737
 30
0.0
 10
318.005884119636
 20
736.4750010610114
 30
0.0
 10
317.8972074777221
 20
736.5592535762037
 30
0.0
 10
317.7306862971664
 20
736.6495107596254
 30
0.0
 10
317.5211796488129
 20
736.731310969684
 30
0.0
 10
317.3756606648822
 20
736.7591598235829
 30
0.0
 10
317.3097707814886
 20
736.7609436480286
 30
0.0
  0
SPLINE
  5
D5
330
1F
100
AcDbEntity
  8
Miura_Table_9590-51_2D
100
AcDbSpline
210
0.0
220
0.0
230
1.0
 70
    24
 71
     2
 72
     6
 73
     3
 74
     0
 42
0.0000000001
 43
0.0000000001
 40
0.0
 40
0.0
 40
0.0
 40
0.5244495011189884
 40
0.5244495011189884
 40
0.5244495011189884
 10
318.4095026644463
 20
736.0114891578473
 30
0.0
 10
318.2377462114628
 20
736.2098171766199
 30
0.0
 10
318.0659897584792
 20
736.4081451953925
 30
0.0
  0
SPLINE
  5
D6
330
1F
100
AcDbEntity
  8
Miura_Table_9590-51_2D
100
AcDbSpline
210
0.0
220
0.0
230
1.0
 70
     8
 71
     3
 72
    16
 73
    12
 74
     0
 42
0.0000000001
 43
0.0000000001
 40
0.0
 40
0.0
 40
0.0
 40
0.0
 40
0.1450445684408275
 40
0.2674563255525638
 40
0.5165020686838145
 40
0.7647651081847263
 40
0.9971024939488223
 40
1.19489142016583
 40
1.37708050099132
 40
1.556352254818322
 40
1.789706299665248
 40
1.789706299665248
 40
1.789706299665248
 40
1.789706299665248
 10
318.04861776915
 20
734.5114905168195
 30
0.0
 10
318.088063076988
 20
734.5396321563674
 30
0.0
 10
318.1602076122417
 20
734.5920911285616
 30
0.0
 10
318.290808885401
 20
734.7045381982823
 30
0.0
 10
318.429198844965
 20
734.8588915283442
 30
0.0
 10
318.5590590771708
 20
735.0656515831715
 30
0.0
 10
318.6411985212089
 20
735.2776999645312
 30
0.0
 10
318.6681831307806
 20
735.481784772421
 30
0.0
 10
318.63881432978
 20
735.6681052931569
 30
0.0
 10
318.5502871230301
 20
735.8476535619786
 30
0.0
 10
318.4605355202702
 20
735.9527758844647
 30
0.0
 10
318.4095026644463
 20
736.0114891578473
 30
0.0
  0
SPLINE
  5
D7
330
1F
100
AcDbEntity
  8
Miura_Table_9590-51_2D
100
AcDbSpline
210
0.0
220
0.0
230
1.0
 70
     8
 71
     3
 72
    12
 73
     8
 74
     0
 42
0.0000000001
 43
0.0000000001
 40
0.0
 40
0.0
 40
0.0
 40
0.0
 40
2.765242495116512
 40
5.467131183712467
 40
11.12386283924205
 40
16.6939552205985
 40
22.3034199774177
 40
22.3034199774177
 40
22.3034199774177
 40
22.3034199774177
 10
297.1831102336737
 20
727.6759581995705
 30
0.0
 10
298.1048220220073
 20
727.6847478471143
 30
0.0
 10
299.9264057619821
 20
727.7725573447542
 30
0.0
 10
303.6088256392895
 20
728.2280487077285
 30
0.0
 10
308.134354429043
 20
729.3273364086522
 30
0.0
 10
313.3336567822416
 20
731.4831401837566
 30
0.0
 10
316.5280540771946
 20
733.4232176012904
 30
0.0
 10
318.04861776915
 20
734.5114905168195
 30
0.0
  0
SPLINE
  5
D8
330
1F
100
AcDbEntity
  8
Miura_Table_9590-51_2D
100
AcDbSpline
210
0.0
220
0.0
230
1.0
 70
     8
 71
     5
 72
    12
 73
     6
 74
     0
 42
0.0000000001
 43
0.0000000001
 40
-1.0
 40
-1.0
 40
-1.0
 40
-1.0
 40
-1.0
 40
-1.0
 40
0.0
 40
0.0
 40
0.0
 40
0.0
 40
0.0
 40
0.0
 10
296.8384569398631
 20
727.6743027570158
 30
0.0
 10
296.9073883934934
 20
727.6743088746434
 30
0.0
 10
296.9763198324217
 20
727.674480646532
 30
0.0
 10
297.0452520108047
 20
727.6748095910616
 30
0.0
 10
297.1141819138547
 20
727.6753008838621
 30
0.0
 10
297.1831102336737
 20
727.6759581995705
 30
0.0
  0
SPLINE
  5
D9
330
1F
100
AcDbEntity
  8
Miura_Table_9590-51_2D
100
AcDbSpline
210
0.0
220
0.0
230
1.0
 70
     8
 71
     3
 72
    11
 73
     7
 74
     0
 42
0.0000000001
 43
0.0000000001
 40
0.0
 40
0.0
 40
0.0
 40
0.0
 40
2.849025153143939
 40
5.681848556468799
 40
11.31563454753918
 40
22.64754464670963
 40
22.64754464670963
 40
22.64754464670963
 40
22.64754464670963
 10
275.6286844388032
 20
734.51141243345
 30
0.0
 10
276.4010126777275
 20
733.9585054049921
 30
0.0
 10
277.9836326676768
 20
732.9151942574815
 30
0.0
 10
281.2853606671097
 20
731.0863398399922
 30
0.0
 10
287.4070022236119
 20
728.5672163123484
 30
0.0
 10
293.0610010935688
 20
727.6739675099375
 30
0.0
 10
296.8384569398631
 20
727.6743027570158
 30
0.0
  0
SPLINE
  5
DA
330
1F
100
AcDbEntity
  8
Miura_Table_9590-51_2D
100
AcDbSpline
210
0.0
220
0.0
230
1.0
 70
     8
 71
     3
 72
    12
 73
     8
 74
     0
 42
0.0000000001
 43
0.0000000001
 40
0.0
 40
0.0
 40
0.0
 40
0.0
 40
0.215147148445352
 40
0.4344126759933203
 40
1.014845999299492
 40
1.738325432821743
 40
2.240259627195612
 40
2.240259627195612
 40
2.240259627195612
 40
2.240259627195612
 10
273.9686630757224
 20
736.011296410426
 30
0.0
 10
274.0157139333105
 20
735.9567349422555
 30
0.0
 10
274.1115307770806
 20
735.8481061382361
 30
0.0
 10
274.3478628660869
 20
735.6059468636101
 30
0.0
 10
274.7198684238383
 20
735.2601966404955
 30
0.0
 10
275.1736700106712
 20
734.8646913635828
 30
0.0
 10
275.4918819922013
 20
734.608289837541
 30
0.0
 10
275.6286844388032
 20
734.51141243345
 30
0.0
  0
SPLINE
  5
DB
330
1F
100
AcDbEntity
  8
Miura_Table_9590-51_2D
100
AcDbSpline
210
0.0
220
0.0
230
1.0
 70
    24
 71
     2
 72
     6
 73
     3
 74
     0
 42
0.0000000001
 43
0.0000000001
 40
0.0
 40
0.0
 40
0.0
 40
0.5244136134753632
 40
0.5244136134753632
 40
0.5244136134753632
 10
273.6251202070398
 20
736.4079853581293
 30
0.0
 10
273.7968916413811
 20
736.2096408842776
 30
0.0
 10
273.9686630757224
 20
736.011296410426
 30
0.0
  0
SPLINE
  5
DC
330
1F
100
AcDbEntity
  8
Miura_Table_9590-51_2D
100
AcDbSpline
210
0.0
220
0.0
230
1.0
 70
     8
 71
     3
 72
    13
 73
     9
 74
     0
 42
0.0000000001
 43
0.0000000001
 40
0.0
 40
0.0
 40
0.0
 40
0.0
 40
0.0842084935809858
 40
0.1523207872208179
 40
0.275918593398183
 40
0.3976132335562294
 40
0.4611173083935368
 40
0.5436834943217632
 40
0.5436834943217632
 40
0.5436834943217632
 40
0.5436834943217632
 10
273.7940424734034
 20
736.7614577455247
 30
0.0
 10
273.7660711242597
 20
736.7614258454612
 30
0.0
 10
273.714907698286
 20
736.758095121191
 30
0.0
 10
273.6262767310045
 20
736.7329200774691
 30
0.0
 10
273.5442235144501
 20
736.6573455748276
 30
0.0
 10
273.5362818323292
 20
736.5473753216909
 30
0.0
 10
273.5757172844878
 20
736.4662330942799
 30
0.0
 10
273.6068680254484
 20
736.428621950482
 30
0.0
 10
273.6251202070398
 20
736.4079853581293
 30
0.0
  0
POLYLINE
  5
DD
330
1F
100
AcDbEntity
  8
Miura_Table_9590-51_2D
100
AcDb2dPolyline
 66
     1
 10
0.0
 20
0.0
 30
0.0
  0
VERTEX
  5
DE
330
DD
100
AcDbEntity
  8
Miura_Table_9590-51_2D
100
AcDbVertex
100
AcDb2dVertex
 10
0.0000003117747838
 20
1103.466472871826
 30
0.0
  0
VERTEX
  5
DF
330
DD
100
AcDbEntity
  8
Miura_Table_9590-51_2D
100
AcDbVertex
100
AcDb2dVertex
 10
-0.000425033045758
 20
1040.916193709229
 30
0.0
  0
SEQEND
  5
E0
330
DD
100
AcDbEntity
  8
Miura_Table_9590-51_2D
  0
SPLINE
  5
E1
330
1F
100
AcDbEntity
  8
Miura_Table_9590-51_2D
100
AcDbSpline
210
0.0
220
0.0
230
1.0
 70
    12
 71
     2
 72
     6
 73
     3
 74
     0
 42
0.0000000001
 43
0.0000000001
 40
0.0
 40
0.0
 40
0.0
 40
0.0456162757198297
 40
0.0456162757198297
 40
0.0456162757198297
 10
-0.775321464825538
 20
1039.941743089511
 30
0.0
 41
1.0
 10
-0.797550102260843
 20
1039.936616714178
 30
0.0
 41
0.9997392900035
 10
-0.8199896032056131
 20
1039.932510518419
 30
0.0
 41
1.0
  0
SPLINE
  5
E2
330
1F
100
AcDbEntity
  8
Miura_Table_9590-51_2D
100
AcDbSpline
210
0.0
220
0.0
230
1.0
 70
     8
 71
     3
 72
    13
 73
     9
 74
     0
 42
0.0000000001
 43
0.0000000001
 40
0.0
 40
0.0
 40
0.0
 40
0.0
 40
1.019225064702818
 40
2.012580360965314
 40
3.947692328443181
 40
4.933986289060289
 40
5.854459583978036
 40
7.77721457745443
 40
7.77721457745443
 40
7.77721457745443
 40
7.77721457745443
 10
-7.422420361133845
 20
1038.005996838292
 30
0.0
 10
-7.126279030012483
 20
1037.839532870739
 30
0.0
 10
-6.531881317252555
 20
1037.527724117114
 30
0.0
 10
-5.331226851916654
 20
1036.987925783518
 30
0.0
 10
-4.094687745448937
 20
1036.562974603729
 30
0.0
 10
-2.847898928927862
 20
1036.267214936226
 30
0.0
 10
-1.588632730843528
 20
1036.054306718753
 30
0.0
 10
-0.6409022308007479
 20
1035.989843115027
 30
0.0
 10
0.0000003117747838
 20
1035.989307169793
 30
0.0
  0
SPLINE
  5
E3
330
1F
100
AcDbEntity
  8
Miura_Table_9590-51_2D
100
AcDbSpline
210
0.0
220
0.0
230
1.0
 70
    12
 71
     2
 72
     6
 73
     3
 74
     0
 42
0.0000000001
 43
0.0000000001
 40
0.0
 40
0.0
 40
0.0
 40
0.5308753252867442
 40
0.5308753252867442
 40
0.5308753252867442
 10
-7.886179102791175
 20
1038.264366152393
 30
0.0
 41
1.0
 10
-7.653744063973144
 20
1038.136178888894
 30
0.0
 41
0.9999907493369194
 10
-7.422420361133845
 20
1038.005996838292
 30
0.0
 41
1.0
  0
SPLINE
  5
E4
330
1F
100
AcDbEntity
  8
Miura_Table_9590-51_2D
100
AcDbSpline
210
0.0
220
0.0
230
1.0
 70
     8
 71
     3
 72
    13
 73
     9
 74
     0
 42
0.0000000001
 43
0.0000000001
 40
0.0
 40
0.0
 40
0.0
 40
0.0
 40
0.9782337425002418
 40
1.922754993476621
 40
2.84322828839396
 40
3.829522249011025
 40
5.764634216489107
 40
7.777214577453913
 40
7.777214577453913
 40
7.777214577453913
 40
7.777214577453913
 10
0.0000003117747838
 20
1035.989307169793
 30
0.0
 10
0.3260856012229851
 20
1035.989460026262
 30
0.0
 10
0.9669617714935157
 20
1036.012140604942
 30
0.0
 10
1.910313667173796
 20
1036.108635032052
 30
0.0
 10
2.847898933217039
 20
1036.267231980191
 30
0.0
 10
4.094684466070248
 20
1036.562979915756
 30
0.0
 10
5.653178666751046
 20
1037.098524522216
 30
0.0
 10
6.837687144806296
 20
1037.677172095763
 30
0.0
 10
7.422420984683413
 20
1038.005996838292
 30
0.0
  0
SPLINE
  5
E5
330
1F
100
AcDbEntity
  8
Miura_Table_9590-51_2D
100
AcDbSpline
210
0.0
220
0.0
230
1.0
 70
    12
 71
     2
 72
     6
 73
     3
 74
     0
 42
0.0000000001
 43
0.0000000001
 40
0.0
 40
0.0
 40
0.0
 40
0.5308753252869439
 40
0.5308753252869439
 40
0.5308753252869439
 10
7.422420984684322
 20
1038.005996838292
 30
0.0
 41
1.0
 10
7.653744687522841
 20
1038.136178888893
 30
0.0
 41
0.9999907493369284
 10
7.886179726341652
 20
1038.264366152393
 30
0.0
 41
1.0
  0
SPLINE
  5
E6
330
1F
100
AcDbEntity
  8
Miura_Table_9590-51_2D
100
AcDbSpline
210
0.0
220
0.0
230
1.0
 70
    12
 71
     2
 72
     6
 73
     3
 74
     0
 42
0.0000000001
 43
0.0000000001
 40
0.0
 40
0.0
 40
0.0
 40
1.53375019001792
 40
1.53375019001792
 40
1.53375019001792
 10
0.0000003117747838
 20
1103.466472871826
 30
0.0
 41
1.0
 10
-0.0000398534440044
 20
1104.430062906392
 30
0.0
 41
0.7201170802944139
 10
-0.9629666716837164
 20
1104.465807822696
 30
0.0
 41
1.0
  0
SPLINE
  5
E7
330
1F
100
AcDbEntity
  8
Miura_Table_9590-51_2D
100
AcDbSpline
210
0.0
220
0.0
230
1.0
 70
    12
 71
     2
 72
     6
 73
     3
 74
     0
 42
0.0000000001
 43
0.0000000001
 40
0.0
 40
0.0
 40
0.0
 40
1.53375001570948
 40
1.53375001570948
 40
1.53375001570948
 10
0.9629671210223023
 20
1104.465807816427
 30
0.0
 41
1.0
 10
0.0000404772078434
 20
1104.430062738096
 30
0.0
 41
0.7201171409990421
 10
0.0000003117747838
 20
1103.466472871826
 30
0.0
 41
1.0
  0
SPLINE
  5
E8
330
1F
100
AcDbEntity
  8
Miura_Table_9590-51_2D
100
AcDbSpline
210
0.0
220
0.0
230
1.0
 70
     8
 71
     3
 72
    13
 73
     9
 74
     0
 42
0.0000000001
 43
0.0000000001
 40
0.0
 40
0.0
 40
0.0
 40
0.0
 40
0.0759172290794612
 40
0.1358047706645862
 40
0.2547108411286943
 40
0.3727728321327626
 40
0.4326874844364469
 40
0.5009095124335416
 40
0.5009095124335416
 40
0.5009095124335416
 40
0.5009095124335416
 10
707.2746145652395
 20
736.4079988527949
 30
0.0
 10
707.2925612585227
 20
736.4257901320757
 30
0.0
 10
707.3242819253833
 20
736.4584552174013
 30
0.0
 10
707.3659193305007
 20
736.5334907222964
 30
0.0
 10
707.3694038773851
 20
736.6376737313369
 30
0.0
 10
707.3078104647234
 20
736.7225392960743
 30
0.0
 10
707.2309725603823
 20
736.7554672450369
 30
0.0
 10
707.1884282632705
 20
736.7602438413824
 30
0.0
 10
707.1656515661475
 20
736.7610596887343
 30
0.0
  0
SPLINE
  5
E9
330
1F
100
AcDbEntity
  8
Miura_Table_9590-51_2D
100
AcDbSpline
210
0.0
220
0.0
230
1.0
 70
    12
 71
     3
 72
     8
 73
     4
 74
     0
 42
0.0000000001
 43
0.0000000001
 40
-0.2809667047186584
 40
-0.2809667047186584
 40
-0.2809667047186584
 40
-0.2809667047186584
 40
0.0
 40
0.0
 40
0.0
 40
0.0
 10
707.2736372115692
 20
736.4076731756613
 30
0.0
 41
1.0
 10
707.2743045014563
 20
736.4079957689439
 30
0.0
 41
1.0
 10
707.2746303654235
 20
736.4079988235937
 30
0.0
 41
1.0
 10
707.2746145652395
 20
736.4079988527949
 30
0.0
 41
1.0
  0
SPLINE
  5
EA
330
1F
100
AcDbEntity
  8
Miura_Table_9590-51_2D
100
AcDbSpline
210
0.0
220
0.0
230
1.0
 70
    24
 71
     2
 72
     6
 73
     3
 74
     0
 42
0.0000000001
 43
0.0000000001
 40
0.0
 40
0.0
 40
0.0
 40
0.559738903496817
 40
0.559738903496817
 40
0.559738903496817
 10
706.8781676023996
 20
736.0115523245979
 30
0.0
 10
707.0759024069844
 20
736.2096127501296
 30
0.0
 10
707.2736372115692
 20
736.4076731756613
 30
0.0
  0
SPLINE
  5
EB
330
1F
100
AcDbEntity
  8
Miura_Table_9590-51_2D
100
AcDbSpline
210
0.0
220
0.0
230
1.0
 70
    12
 71
     3
 72
     8
 73
     4
 74
     0
 42
0.0000000001
 43
0.0000000001
 40
-0.2806769686640115
 40
-0.2806769686640115
 40
-0.2806769686640115
 40
-0.2806769686640115
 40
0.0
 40
0.0
 40
0.0
 40
0.0
 10
706.8775014795915
 20
736.0115520478512
 30
0.0
 41
1.0
 10
706.8779633752297
 20
736.0115523245663
 30
0.0
 41
1.0
 10
706.8781854630392
 20
736.0115523251282
 30
0.0
 41
1.0
 10
706.8781676023996
 20
736.0115523245979
 30
0.0
 41
1.0
  0
SPLINE
  5
EC
330
1F
100
AcDbEntity
  8
Miura_Table_9590-51_2D
100
AcDbSpline
210
0.0
220
0.0
230
1.0
 70
    24
 71
     2
 72
     6
 73
     3
 74
     0
 42
0.0000000001
 43
0.0000000001
 40
0.0
 40
0.0
 40
0.0
 40
0.0000154295494115
 40
0.0000154295494115
 40
0.0000154295494115
 10
706.8778289825309
 20
736.0112131879464
 30
0.0
 10
706.8776652310612
 20
736.0113826178988
 30
0.0
 10
706.8775014795915
 20
736.0115520478512
 30
0.0
  0
SPLINE
  5
ED
330
1F
100
AcDbEntity
  8
Miura_Table_9590-51_2D
100
AcDbSpline
210
0.0
220
0.0
230
1.0
 70
     8
 71
     3
 72
    12
 73
     8
 74
     0
 42
0.0000000001
 43
0.0000000001
 40
0.0
 40
0.0
 40
0.0
 40
0.0
 40
0.198582148184335
 40
0.4558823293423835
 40
1.173126657775418
 40
1.79495840075012
 40
2.266661781302044
 40
2.266661781302044
 40
2.266661781302044
 40
2.266661781302044
 10
705.1786547859779
 20
734.5112428513548
 30
0.0
 10
705.2318725707541
 20
734.551464643657
 30
0.0
 10
705.3513584347043
 20
734.645376934254
 30
0.0
 10
705.6519793435368
 20
734.8955051662724
 30
0.0
 10
706.0538881747711
 20
735.24427235279
 30
0.0
 10
706.5035528689191
 20
735.6469925531915
 30
0.0
 10
706.7668752178829
 20
735.8991370884814
 30
0.0
 10
706.8778289825309
 20
736.0112131879464
 30
0.0
  0
SPLINE
  5
EE
330
1F
100
AcDbEntity
  8
Miura_Table_9590-51_2D
100
AcDbSpline
210
0.0
220
0.0
230
1.0
 70
     8
 71
     3
 72
    12
 73
     8
 74
     0
 42
0.0000000001
 43
0.0000000001
 40
0.0
 40
0.0
 40
0.0
 40
0.0
 40
2.73591608993206
 40
5.43493518296994
 40
10.74089733582064
 40
16.11138166064301
 40
21.52862391160747
 40
21.52862391160747
 40
21.52862391160747
 40
21.52862391160747
 10
685.1538670579707
 20
727.6751650823571
 30
0.0
 10
686.0658278880915
 20
727.6816612910393
 30
0.0
 10
687.8768255189375
 20
727.7697579018661
 30
0.0
 10
691.4301806954168
 20
728.2309836920342
 30
0.0
 10
695.7652743481317
 20
729.3315681296096
 30
0.0
 10
700.7037700552978
 20
731.4709278517018
 30
0.0
 10
703.7411513336651
 20
733.4175872782655
 30
0.0
 10
705.1786547859779
 20
734.5112428513548
 30
0.0
  0
SPLINE
  5
EF
330
1F
100
AcDbEntity
  8
Miura_Table_9590-51_2D
100
AcDbSpline
210
0.0
220
0.0
230
1.0
 70
    12
 71
     2
 72
     6
 73
     3
 74
     0
 42
0.0000000001
 43
0.0000000001
 40
0.0
 40
0.0
 40
0.0
 40
0.5724594400308637
 40
0.5724594400308637
 40
0.5724594400308637
 10
684.5814153420092
 20
727.6759826009277
 30
0.0
 41
1.0
 10
684.867637663752
 20
727.6730976592276
 30
0.0
 41
0.9999625809148069
 10
685.1538670579707
 20
727.6751650823571
 30
0.0
 41
1.0
  0
SPLINE
  5
F0
330
1F
100
AcDbEntity
  8
Miura_Table_9590-51_2D
100
AcDbSpline
210
0.0
220
0.0
230
1.0
 70
     8
 71
     3
 72
    11
 73
     7
 74
     0
 42
0.0000000001
 43
0.0000000001
 40
0.0
 40
0.0
 40
0.0
 40
0.0
 40
2.743424606184175
 40
5.414828345882175
 40
10.77592486299058
 40
21.43397361190056
 40
21.43397361190056
 40
21.43397361190056
 40
21.43397361190056
 10
664.6512722221419
 20
734.5112436970217
 30
0.0
 10
665.3793715508114
 20
733.9572475476866
 30
0.0
 10
666.8606366719655
 20
732.9227927765339
 30
0.0
 10
669.9638658531835
 20
731.1090924427026
 30
0.0
 10
675.6986047222995
 20
728.6214567238264
 30
0.0
 10
681.0288634118201
 20
727.7115827415314
 30
0.0
 10
684.5814153420092
 20
727.6759826009277
 30
0.0
  0
SPLINE
  5
F1
330
1F
100
AcDbEntity
  8
Miura_Table_9590-51_2D
100
AcDbSpline
210
0.0
220
0.0
230
1.0
 70
     8
 71
     3
 72
    12
 73
     8
 74
     0
 42
0.0000000001
 43
0.0000000001
 40
0.0
 40
0.0
 40
0.0
 40
0.0
 40
0.0980656229116343
 40
0.2035418359053462
 40
0.4140500476026759
 40
0.6218932345208525
 40
0.8516964985803366
 40
0.8516964985803366
 40
0.8516964985803366
 40
0.8516964985803366
 10
664.1587469148703
 20
735.1860415461497
 30
0.0
 10
664.16707229555
 20
735.1544143070716
 30
0.0
 10
664.187736803889
 20
735.0897616112773
 30
0.0
 10
664.2425259341258
 20
734.9628053227709
 30
0.0
 10
664.3334348591475
 20
734.8130564104097
 30
0.0
 10
664.4755049410019
 20
734.649145370633
 30
0.0
 10
664.5896619089931
 20
734.5574913833696
 30
0.0
 10
664.6512722221419
 20
734.5112436970217
 30
0.0
  0
SPLINE
  5
F2
330
1F
100
AcDbEntity
  8
Miura_Table_9590-51_2D
100
AcDbSpline
210
0.0
220
0.0
230
1.0
 70
    12
 71
     2
 72
     6
 73
     3
 74
     0
 42
0.0000000001
 43
0.0000000001
 40
0.0
 40
0.0
 40
0.0
 40
0.2017970891503139
 40
0.2017970891503139
 40
0.2017970891503139
 10
664.1306848599802
 20
735.3853711696745
 30
0.0
 41
1.0
 10
664.1324761082849
 20
735.2839832153687
 30
0.0
 41
0.9925431650836243
 10
664.1587469148703
 20
735.1860415461497
 30
0.0
 41
1.0
  0
SPLINE
  5
F3
330
1F
100
AcDbEntity
  8
Miura_Table_9590-51_2D
100
AcDbSpline
210
0.0
220
0.0
230
1.0
 70
    12
 71
     5
 72
    12
 73
     6
 74
     0
 42
0.0000000001
 43
0.0000000001
 40
0.0
 40
0.0
 40
0.0
 40
0.0
 40
0.0
 40
0.0
 40
0.8739897245742342
 40
0.8739897245742342
 40
0.8739897245742342
 40
0.8739897245742342
 40
0.8739897245742342
 40
0.8739897245742342
 10
664.4517604844145
 20
736.011552325137
 30
0.0
 41
1.0
 10
664.3435806341063
 20
735.9033724747931
 30
0.0
 41
1.0
 10
664.235400783828
 20
735.795192624458
 30
0.0
 41
1.0
 10
664.1619910555769
 20
735.6684491082424
 30
0.0
 41
1.0
 10
664.1288800223506
 20
735.5285296703232
 30
0.0
 41
1.0
 10
664.1306848599802
 20
735.3853711696745
 30
0.0
 41
1.0
  0
SPLINE
  5
F4
330
1F
100
AcDbEntity
  8
Miura_Table_9590-51_2D
100
AcDbSpline
210
0.0
220
0.0
230
1.0
 70
    12
 71
     2
 72
     6
 73
     3
 74
     0
 42
0.0000000001
 43
0.0000000001
 40
-0.5606600998610313
 40
-0.5606600998610313
 40
-0.5606600998610313
 40
0.0
 40
0.0
 40
0.0
 10
664.8482070427567
 20
736.4079988838021
 30
0.0
 41
1.0
 10
664.6499837897561
 20
736.2097755783867
 30
0.0
 41
0.9999999999999913
 10
664.4517604844145
 20
736.011552325137
 30
0.0
 41
1.0
  0
SPLINE
  5
F5
330
1F
100
AcDbEntity
  8
Miura_Table_9590-51_2D
100
AcDbSpline
210
0.0
220
0.0
230
1.0
 70
    12
 71
     5
 72
    12
 73
     6
 74
     0
 42
0.0000000001
 43
0.0000000001
 40
0.0589558208107204
 40
0.0589558208107204
 40
0.0589558208107204
 40
0.0589558208107204
 40
0.0589558208107204
 40
0.0589558208107204
 40
0.9432931329715265
 40
0.9432931329715265
 40
0.9432931329715265
 40
0.9432931329715265
 40
0.9432931329715265
 40
0.9432931329715265
 10
665.6598946320087
 20
736.7611464133433
 30
0.0
 41
1.0
 10
665.5307293707124
 20
736.7575923403347
 30
0.0
 41
1.0
 10
665.3635783316299
 20
736.7288521087
 30
0.0
 41
1.0
 10
665.0108037426321
 20
736.5705955836704
 30
0.0
 41
1.0
 10
664.9295053927422
 20
736.4892972337373
 30
0.0
 41
1.0
 10
664.8482070427567
 20
736.4079988838021
 30
0.0
 41
1.0
  0
SPLINE
  5
F6
330
1F
100
AcDbEntity
  8
Miura_Table_9590-51_2D
100
AcDbSpline
210
0.0
220
0.0
230
1.0
 70
    24
 71
     2
 72
     6
 73
     3
 74
     0
 42
0.0000000001
 43
0.0000000001
 40
0.0
 40
0.0
 40
0.0
 40
436.03635649731
 40
436.03635649731
 40
436.03635649731
 10
973.3138929611
 20
1045.08581664055
 30
0.0
 10
819.1517605490722
 20
890.9236845294546
 30
0.0
 10
664.9896281370443
 20
736.7615524183595
 30
0.0
  0
SPLINE
  5
F7
330
1F
100
AcDbEntity
  8
Miura_Table_9590-51_2D
100
AcDbSpline
210
0.0
220
0.0
230
1.0
 70
     8
 71
     3
 72
    14
 73
    10
 74
     0
 42
0.0000000001
 43
0.0000000001
 40
0.0
 40
0.0
 40
0.0
 40
0.0
 40
0.9891480038174153
 40
2.048682505589698
 40
4.284630339927826
 40
5.914186096750435
 40
6.608070935285521
 40
9.47879807401191
 40
12.82201302314979
 40
12.82201302314979
 40
12.82201302314979
 40
12.82201302314979
 10
982.2841245580298
 20
1054.24511852139
 30
0.0
 10
982.0644543989933
 20
1053.999234639462
 30
0.0
 10
981.6058002109698
 20
1053.493275650494
 30
0.0
 10
980.6336433286601
 20
1052.446955367962
 30
0.0
 10
979.495816757943
 20
1051.263423572967
 30
0.0
 10
978.4251641972301
 20
1050.184741708905
 30
0.0
 10
977.1982547338343
 20
1048.963106321593
 30
0.0
 10
975.5620609395023
 20
1047.342944675399
 30
0.0
 10
974.1017302980404
 20
1045.87398068574
 30
0.0
 10
973.3138929611
 20
1045.08581664055
 30
0.0
  0
SPLINE
  5
F8
330
1F
100
AcDbEntity
  8
Miura_Table_9590-51_2D
100
AcDbSpline
210
0.0
220
0.0
230
1.0
 70
     8
 71
     5
 72
    12
 73
     6
 74
     0
 42
0.0000000001
 43
0.0000000001
 40
0.0
 40
0.0
 40
0.0
 40
0.0
 40
0.0
 40
0.0
 40
1.0
 40
1.0
 40
1.0
 40
1.0
 40
1.0
 40
1.0
 10
989.6224699417357
 20
1063.858318282335
 30
0.0
 10
988.304343864213
 20
1061.830230377847
 30
0.0
 10
986.9094183043258
 20
1059.852057173911
 30
0.0
 10
985.4272074767464
 20
1057.92409911631
 30
0.0
 10
983.8956185496368
 20
1056.048915632928
 30
0.0
 10
982.2841245580298
 20
1054.24511852139
 30
0.0
  0
SPLINE
  5
F9
330
1F
100
AcDbEntity
  8
Miura_Table_9590-51_2D
100
AcDbSpline
210
0.0
220
0.0
230
1.0
 70
     8
 71
     3
 72
    13
 73
     9
 74
     0
 42
0.0000000001
 43
0.0000000001
 40
0.0
 40
0.0
 40
0.0
 40
0.0
 40
3.162722799211982
 40
5.963232700855801
 40
11.82659241116913
 40
23.58923876696889
 40
35.36859962543459
 40
47.14230545140192
 40
47.14230545140192
 40
47.14230545140192
 40
47.14230545140192
 10
1002.545345540403
 20
1108.490457031538
 30
0.0
 10
1002.547549774445
 20
1107.436288205159
 30
0.0
 10
1002.538830279968
 20
1105.448158902844
 30
0.0
 10
1002.363719341995
 20
1101.509219417126
 30
0.0
 10
1001.696309718518
 20
1094.728601470782
 30
0.0
 10
999.6628237244954
 20
1085.112908751428
 30
0.0
 10
995.5542303288862
 20
1074.047220801545
 30
0.0
 10
991.7611557969108
 20
1067.148931364305
 30
0.0
 10
989.6224699417357
 20
1063.858318282335
 30
0.0
  0
SPLINE
  5
FA
330
1F
100
AcDbEntity
  8
Miura_Table_9590-51_2D
100
AcDbSpline
210
0.0
220
0.0
230
1.0
 70
    12
 71
     2
 72
     6
 73
     3
 74
     0
 42
0.0000000001
 43
0.0000000001
 40
0.0
 40
0.0
 40
0.0
 40
1.347660071043663
 40
1.347660071043663
 40
1.347660071043663
 10
1003.323061337069
 20
1109.466471425952
 30
0.0
 41
1.0
 10
1002.544548277499
 20
1109.288952450985
 30
0.0
 41
0.781453218492171
 10
1002.545345540403
 20
1108.490457031538
 30
0.0
 41
1.0
  0
SPLINE
  5
FB
330
1F
100
AcDbEntity
  8
Miura_Table_9590-51_2D
100
AcDbSpline
210
0.0
220
0.0
230
1.0
 70
    12
 71
     2
 72
     6
 73
     3
 74
     0
 42
0.0000000001
 43
0.0000000001
 40
0.0
 40
0.0
 40
0.0
 40
0.4549953359630085
 40
0.4549953359630085
 40
0.4549953359630085
 10
1017.63195534964
 20
1039.917957198614
 30
0.0
 41
1.0
 10
1017.863048025483
 20
1039.931786704588
 30
0.0
 41
0.9742292604962514
 10
1018.064547945195
 20
1040.045772942442
 30
0.0
 41
1.0
  0
SPLINE
  5
FC
330
1F
100
AcDbEntity
  8
Miura_Table_9590-51_2D
100
AcDbSpline
210
0.0
220
0.0
230
1.0
 70
     8
 71
     3
 72
    20
 73
    16
 74
     0
 42
0.0000000001
 43
0.0000000001
 40
-431.4835608872114
 40
-431.4835608872114
 40
-431.4835608872114
 40
-431.4835608872114
 40
-25.59720475510172
 40
-25.59720475510172
 40
-25.59720475510172
 40
-23.041181434814
 40
-22.35224480279041
 40
-22.35224480279041
 40
-22.35224480279041
 40
-20.7744918917307
 40
-0.3474546757883483
 40
-0.3474546757883483
 40
-0.3474546757883483
 40
0.9942450456762053
 40
2.82110455926947
 40
2.82110455926947
 40
2.82110455926947
 40
2.82110455926947
 10
707.6281674899533
 20
736.7615523274726
 30
0.0
 10
803.2964916777132
 20
832.4298914070199
 30
0.0
 10
898.9648158654741
 20
928.0982304865669
 30
0.0
 10
994.6331400532331
 20
1023.766569566114
 30
0.0
 10
995.2401618069421
 20
1024.36432789476
 30
0.0
 10
996.0141151928478
 20
1025.120290333841
 30
0.0
 10
996.8075479128606
 20
1025.855419031445
 30
0.0
 10
996.9768284625166
 20
1026.010593866579
 30
0.0
 10
997.3642627749109
 20
1026.36574427029
 30
0.0
 10
1002.860271466241
 20
1031.205764008816
 30
0.0
 10
1008.169934843056
 20
1036.837168799695
 30
0.0
 10
1014.524660517091
 20
1039.27814127938
 30
0.0
 10
1014.942082361032
 20
1039.43848104631
 30
0.0
 10
1015.9572895966
 20
1039.740282425042
 30
0.0
 10
1017.024250137808
 20
1039.881589698749
 30
0.0
 10
1017.631955349639
 20
1039.917957198614
 30
0.0
  0
SPLINE
  5
FD
330
1F
100
AcDbEntity
  8
Miura_Table_9590-51_2D
100
AcDbSpline
210
0.0
220
0.0
230
1.0
 70
     8
 71
     3
 72
    11
 73
     7
 74
     0
 42
0.0000000001
 43
0.0000000001
 40
0.0081002585430663
 40
0.0081002585430663
 40
0.0081002585430663
 40
0.0081002585430663
 40
0.76990063300263
 40
0.76990063300263
 40
0.76990063300263
 40
3.675276053828606
 40
3.675276053828606
 40
3.675276053828606
 40
3.675276053828606
 10
1049.310266795084
 20
1105.07450096292
 30
0.0
 10
1049.355788242392
 20
1104.824482988933
 30
0.0
 10
1049.515334593365
 20
1104.466471390979
 30
0.0
 10
1049.769221968759
 20
1104.466471392025
 30
0.0
 10
1050.737680442369
 20
1104.466471396015
 30
0.0
 10
1051.706138915977
 20
1104.466471400005
 30
0.0
 10
1052.674597389585
 20
1104.466471409979
 30
0.0
  0
SPLINE
  5
FE
330
1F
100
AcDbEntity
  8
Miura_Table_9590-51_2D
100
AcDbSpline
210
0.0
220
0.0
230
1.0
 70
    12
 71
     2
 72
     6
 73
     3
 74
     0
 42
0.0000000001
 43
0.0000000001
 40
-0.3761526883931789
 40
-0.3761526883931789
 40
-0.3761526883931789
 40
0.0
 40
0.0
 40
0.0
 10
1049.243431276017
 20
1105.444668163706
 30
0.0
 41
1.0
 10
1049.276577065217
 20
1105.259535457724
 30
0.0
 41
0.9999989203661542
 10
1049.310266795084
 20
1105.07450096292
 30
0.0
 41
1.0
  0
SPLINE
  5
FF
330
1F
100
AcDbEntity
  8
Miura_Table_9590-51_2D
100
AcDbSpline
210
0.0
220
0.0
230
1.0
 70
     8
 71
     3
 72
    15
 73
    11
 74
     0
 42
0.0000000001
 43
0.0000000001
 40
-5.517215510995963
 40
-5.517215510995963
 40
-5.517215510995963
 40
-5.517215510995963
 40
-4.92773864084709
 40
-4.318670834827659
 40
-3.704388331691281
 40
-3.058194976662103
 40
-2.377907408399817
 40
-1.641856638493278
 40
-0.8506135065108558
 40
0.0
 40
0.0
 40
0.0
 40
0.0
 10
1046.023112053869
 20
1109.466395800773
 30
0.0
 10
1046.217967824812
 20
1109.441065957981
 30
0.0
 10
1046.609025594364
 20
1109.350141707497
 30
0.0
 10
1047.160850930779
 20
1109.096091676838
 30
0.0
 10
1047.666407871548
 20
1108.726905954769
 30
0.0
 10
1048.112155485286
 20
1108.254616091692
 30
0.0
 10
1048.496894712468
 20
1107.682431400806
 30
0.0
 10
1048.816878422994
 20
1107.017976156655
 30
0.0
 10
1049.071651774288
 20
1106.266106839914
 30
0.0
 10
1049.193465330792
 20
1105.723748278236
 30
0.0
 10
1049.243431276017
 20
1105.444668163706
 30
0.0
  0
SPLINE
  5
100
330
1F
100
AcDbEntity
  8
Miura_Table_9590-51_2D
100
AcDbSpline
210
0.0
220
0.0
230
1.0
 70
    12
 71
     2
 72
     6
 73
     3
 74
     0
 42
0.0000000001
 43
0.0000000001
 40
-5.848452852216105
 40
-5.848452852216105
 40
-5.848452852216105
 40
0.0
 40
0.0
 40
0.0
 10
1040.17465920288
 20
1109.466471426229
 30
0.0
 41
1.0
 10
1043.098885629415
 20
1109.466514085118
 30
0.0
 41
0.9999999996213539
 10
1046.023112053869
 20
1109.466395800773
 30
0.0
 41
1.0
  0
SPLINE
  5
101
330
1F
100
AcDbEntity
  8
Miura_Table_9590-51_2D
100
AcDbSpline
210
0.0
220
0.0
230
1.0
 70
    12
 71
     2
 72
     6
 73
     3
 74
     0
 42
0.0000000001
 43
0.0000000001
 40
0.0
 40
0.0
 40
0.0
 40
7.460028192515836
 40
7.460028192515836
 40
7.460028192515836
 10
1032.714631016656
 20
1109.466675433664
 30
0.0
 41
1.0
 10
1036.444645104354
 20
1109.46637545337
 30
0.0
 41
0.9999999985914357
 10
1040.17465920288
 20
1109.466471426229
 30
0.0
 41
1.0
  0
SPLINE
  5
102
330
1F
100
AcDbEntity
  8
Miura_Table_9590-51_2D
100
AcDbSpline
210
0.0
220
0.0
230
1.0
 70
    12
 71
     2
 72
     6
 73
     3
 74
     0
 42
0.0000000001
 43
0.0000000001
 40
0.0
 40
0.0
 40
0.0
 40
0.0159951658560524
 40
0.0159951658560524
 40
0.0159951658560524
 10
1032.698636139425
 20
1109.466579411041
 30
0.0
 41
1.0
 10
1032.706633559439
 20
1109.466630520919
 30
0.0
 41
0.999999924943241
 10
1032.714631016656
 20
1109.466675433664
 30
0.0
 41
1.0
  0
SPLINE
  5
103
330
1F
100
AcDbEntity
  8
Miura_Table_9590-51_2D
100
AcDbSpline
210
0.0
220
0.0
230
1.0
 70
    12
 71
     3
 72
    54
 73
    50
 74
     0
 42
0.0000000001
 43
0.0000000001
 40
-36.3735092767428
 40
-36.3735092767428
 40
-36.3735092767428
 40
-36.3735092767428
 40
-35.65104266691848
 40
-35.51144398999158
 40
-35.26611209216914
 40
-35.10822082106448
 40
-35.01354362312178
 40
-34.93913335904487
 40
-34.75994055350136
 40
-34.55514104781032
 40
-34.31738447665442
 40
-34.04971475097287
 40
-33.65792912305069
 40
-33.23516828083971
 40
-32.29041859629451
 40
-31.25837170456729
 40
-30.19949178401347
 40
-30.19949178401347
 40
-30.19949178401347
 40
-29.4960952416352
 40
-29.4960952416352
 40
-28.79304492415562
 40
-28.79304492415562
 40
-28.79304492415562
 40
-20.11557317593713
 40
-20.11557317593713
 40
-20.11557317593713
 40
-8.53272600516803
 40
-8.53272600516803
 40
-8.53272600516803
 40
-8.268823246790324
 40
-8.268823246790324
 40
-8.268823246790324
 40
-7.121775403209211
 40
-7.121775403209211
 40
-7.121775403209211
 40
-5.332336009370444
 40
-3.594248314605104
 40
-2.749108168344543
 40
-1.884922955709098
 40
-1.047676823306014
 40
-0.6247475337379003
 40
-0.1840573543565883
 40
-0.1840573543565883
 40
-0.1840573543565883
 40
-0.0163079898344346
 40
-0.0163079898344346
 40
-0.0163079898344346
 40
0.0
 40
0.0
 40
0.0
 40
0.0
 10
1002.675056544597
 20
1109.466471426228
 30
0.0
 41
0.999999524845157
 10
1002.916090608439
 20
1109.46647706788
 30
0.0
 41
0.999999524845157
 10
1003.203445698974
 20
1109.466460792504
 30
0.0
 41
0.999999524845157
 10
1003.57256701049
 20
1109.466580453542
 30
0.0
 41
0.999999524845157
 10
1003.753572929324
 20
1109.465803486816
 30
0.0
 41
0.999999524845157
 10
1003.91940000052
 20
1109.467719686134
 30
0.0
 41
0.999999524845157
 10
1004.028636320358
 20
1109.464911774292
 30
0.0
 41
0.999999524845157
 10
1004.142657058609
 20
1109.441529292045
 30
0.0
 41
0.999999524845157
 10
1004.285267139412
 20
1109.384117921638
 30
0.0
 41
0.999999524845157
 10
1004.459061384823
 20
1109.269789928893
 30
0.0
 41
0.999999524845157
 10
1004.635416193406
 20
1109.111100655892
 30
0.0
 41
0.999999524845157
 10
1004.832330333908
 20
1108.885353223864
 30
0.0
 41
0.999999524845157
 10
1005.037753100504
 20
1108.588215036903
 30
0.0
 41
0.999999524845157
 10
1005.32091805824
 20
1108.073766383415
 30
0.0
 41
0.999999524845157
 10
1005.616896041448
 20
1107.328515950407
 30
0.0
 41
0.999999524845157
 10
1005.866390683278
 20
1106.345959050455
 30
0.0
 41
0.999999524845157
 10
1005.960507452245
 20
1105.654367993963
 30
0.0
 41
0.999999524845157
 10
1005.98947797368
 20
1105.302581065424
 30
0.0
 41
0.999999524845157
 10
1006.008817749344
 20
1105.068707605005
 30
0.0
 41
0.999999524845157
 10
1006.068573201708
 20
1104.856711484216
 30
0.0
 41
0.999999524845157
 10
1006.252948164137
 20
1104.550184105264
 30
0.0
 41
0.999999524845157
 10
1006.371380818923
 20
1104.466466072961
 30
0.0
 41
0.999999524845157
 10
1006.497311114128
 20
1104.466471420064
 30
0.0
 41
0.999999524845157
 10
1009.389801696869
 20
1104.466471438026
 30
0.0
 41
0.999999524845157
 10
1012.282292279608
 20
1104.466471443359
 30
0.0
 41
0.999999524845157
 10
1015.174782862347
 20
1104.466471436065
 30
0.0
 41
0.999999524845157
 10
1019.035731919269
 20
1104.466471421385
 30
0.0
 41
0.999999524845157
 10
1022.896680976193
 20
1104.466471406705
 30
0.0
 41
0.999999524845157
 10
1026.757630033115
 20
1104.466471392025
 30
0.0
 41
0.999999524845157
 10
1026.845852052713
 20
1104.466455760074
 30
0.0
 41
0.9942088042594844
 10
1026.933265016425
 20
1104.478208940089
 30
0.0
 41
0.9942086996797163
 10
1027.018350398081
 20
1104.501526761145
 30
0.0
 41
0.9999992111058522
 10
1027.408767478097
 20
1104.60893111347
 30
0.0
 41
0.8933366331508513
 10
1027.678633885518
 20
1104.91095317455
 30
0.0
 41
0.8933368961155672
 10
1027.741595562391
 20
1105.310949197687
 30
0.0
 41
1.0
 10
1027.834477673005
 20
1105.899967343355
 30
0.0
 41
1.0
 10
1028.211280733192
 20
1107.032273563483
 30
0.0
 41
1.0
 10
1029.132427823998
 20
1108.192011257815
 30
0.0
 41
1.0
 10
1030.069836413448
 20
1108.865830136908
 30
0.0
 41
1.0
 10
1030.842192660084
 20
1109.226606668653
 30
0.0
 41
1.0
 10
1031.531433445018
 20
1109.402092258284
 30
0.0
 41
1.0
 10
1032.09553319534
 20
1109.465038488775
 30
0.0
 41
1.0
 10
1032.383728473278
 20
1109.467481589866
 30
0.0
 41
1.0
 10
1032.530573419203
 20
1109.467008513637
 30
0.0
 41
1.0
 10
1032.586489873006
 20
1109.467009174259
 30
0.0
 41
0.999999999998273
 10
1032.642406334279
 20
1109.466971057357
 30
0.0
 41
0.999999999998273
 10
1032.698322803022
 20
1109.466894162929
 30
0.0
 41
1.0
 10
1032.703758808387
 20
1109.46680671858
 30
0.0
 41
0.9999999998057724
 10
1032.693200253819
 20
1109.466544671407
 30
0.0
 41
0.9999999998057724
 10
1032.698636139425
 20
1109.466579411041
 30
0.0
 41
1.0
  0
SPLINE
  5
104
330
1F
100
AcDbEntity
  8
Miura_Table_9590-51_2D
100
AcDbSpline
210
0.0
220
0.0
230
1.0
 70
     8
 71
     3
 72
    12
 73
     8
 74
     0
 42
0.0000000001
 43
0.0000000001
 40
0.0
 40
0.0
 40
0.0
 40
0.0
 40
0.0783339057735422
 40
0.1543752911000592
 40
0.3458434999895036
 40
0.5566067183729958
 40
0.745730808072604
 40
0.745730808072604
 40
0.745730808072604
 40
0.745730808072604
 10
1222.590639531787
 20
736.4080240643641
 30
0.0
 10
1222.579205299093
 20
736.4314657479363
 30
0.0
 10
1222.554585409056
 20
736.4769488589609
 30
0.0
 10
1222.477647768528
 20
736.5637926364204
 30
0.0
 10
1222.345696423132
 20
736.6551617943192
 30
0.0
 10
1222.164652935876
 20
736.7354225161721
 30
0.0
 10
1222.032279572395
 20
736.7593052640468
 30
0.0
 10
1221.969226914848
 20
736.7608761711638
 30
0.0
  0
SPLINE
  5
105
330
1F
100
AcDbEntity
  8
Miura_Table_9590-51_2D
100
AcDbSpline
210
0.0
220
0.0
230
1.0
 70
    24
 71
     2
 72
     6
 73
     3
 74
     0
 42
0.0000000001
 43
0.0000000001
 40
0.0
 40
0.0
 40
0.0
 40
0.4432407273142656
 40
0.4432407273142656
 40
0.4432407273142656
 10
1222.788879853269
 20
736.0115449786701
 30
0.0
 10
1222.689759692528
 20
736.2097845215171
 30
0.0
 10
1222.590639531787
 20
736.4080240643641
 30
0.0
  0
SPLINE
  5
106
330
1F
100
AcDbEntity
  8
Miura_Table_9590-51_2D
100
AcDbSpline
210
0.0
220
0.0
230
1.0
 70
     8
 71
     3
 72
    16
 73
    12
 74
     0
 42
0.0000000001
 43
0.0000000001
 40
0.0
 40
0.0
 40
0.0
 40
0.0
 40
0.1493864394124331
 40
0.2793559016564561
 40
0.5550513490148504
 40
0.8392020165335362
 40
1.095708427849608
 40
1.300439052038603
 40
1.480820944991987
 40
1.644774875639234
 40
1.839449949945527
 40
1.839449949945527
 40
1.839449949945527
 40
1.839449949945527
 10
1222.049416153366
 20
734.5115536105218
 30
0.0
 10
1222.091217277117
 20
734.5386279662657
 30
0.0
 10
1222.168937320197
 20
734.5899937756026
 30
0.0
 10
1222.315755793079
 20
734.7027954875564
 30
0.0
 10
1222.483180443166
 20
734.8610900977963
 30
0.0
 10
1222.656809084078
 20
735.0712806320889
 30
0.0
 10
1222.787857951775
 20
735.2832815521945
 30
0.0
 10
1222.867812910266
 20
735.4826207145777
 30
0.0
 10
1222.896382167487
 20
735.6650758369171
 30
0.0
 10
1222.870467964683
 20
735.8450543651488
 30
0.0
 10
1222.818036532194
 20
735.9537719066097
 30
0.0
 10
1222.788879853269
 20
736.0115449786701
 30
0.0
  0
SPLINE
  5
107
330
1F
100
AcDbEntity
  8
Miura_Table_9590-51_2D
100
AcDbSpline
210
0.0
220
0.0
230
1.0
 70
     8
 71
     3
 72
    12
 73
     8
 74
     0
 42
0.0000000001
 43
0.0000000001
 40
0.0
 40
0.0
 40
0.0
 40
0.0
 40
3.067510030199397
 40
6.111020822346612
 40
12.08884398209748
 40
18.2299956540746
 40
24.32566676622235
 40
24.32566676622235
 40
24.32566676622235
 40
24.32566676622235
 10
1199.054606645392
 20
727.6743027026209
 30
0.0
 10
1200.077116791502
 20
727.6742384409722
 30
0.0
 10
1202.114088438096
 20
727.7494280339947
 30
0.0
 10
1206.122295085589
 20
728.1888213328075
 30
0.0
 10
1211.071082952356
 20
729.2769851097712
 30
0.0
 10
1216.767229773458
 20
731.4249471942278
 30
0.0
 10
1220.345830463879
 20
733.4041645013936
 30
0.0
 10
1222.049416153366
 20
734.5115536105218
 30
0.0
  0
SPLINE
  5
108
330
1F
100
AcDbEntity
  8
Miura_Table_9590-51_2D
100
AcDbSpline
210
0.0
220
0.0
230
1.0
 70
     8
 71
     3
 72
    11
 73
     7
 74
     0
 42
0.0000000001
 43
0.0000000001
 40
0.0
 40
0.0
 40
0.0
 40
0.0
 40
3.125176035128539
 40
6.095599655767289
 40
12.14563159808566
 40
24.32538406836998
 40
24.32538406836998
 40
24.32538406836998
 40
24.32538406836998
 10
1176.059973127252
 20
734.5115047507161
 30
0.0
 10
1176.933415446215
 20
733.9437079062939
 30
0.0
 10
1178.677592960503
 20
732.8984196204503
 30
0.0
 10
1182.292416076882
 20
731.0703535789401
 30
0.0
 10
1188.918945219565
 20
728.5622658815014
 30
0.0
 10
1194.994561234304
 20
727.6739443645781
 30
0.0
 10
1199.054606645392
 20
727.6743027026209
 30
0.0
  0
SPLINE
  5
109
330
1F
100
AcDbEntity
  8
Miura_Table_9590-51_2D
100
AcDbSpline
210
0.0
220
0.0
230
1.0
 70
     8
 71
     3
 72
    14
 73
    10
 74
     0
 42
0.0000000001
 43
0.0000000001
 40
0.0
 40
0.0
 40
0.0
 40
0.0
 40
0.1878442759905428
 40
0.377592525096296
 40
0.6122387701456025
 40
0.8889786116689307
 40
1.581028401171428
 40
1.879577165562933
 40
2.132521340345825
 40
2.132521340345825
 40
2.132521340345825
 40
2.132521340345825
 10
1174.570382511487
 20
736.011471218686
 30
0.0
 10
1174.597980689991
 20
735.9552217818723
 30
0.0
 10
1174.657231536227
 20
735.8438315616031
 30
0.0
 10
1174.77559718378
 20
735.6772563455488
 30
0.0
 10
1174.926325827614
 20
735.4984622357567
 30
0.0
 10
1175.203647323241
 20
735.2084360072611
 30
0.0
 10
1175.515541295683
 20
734.9229384287637
 30
0.0
 10
1175.837837820167
 20
734.6620998477563
 30
0.0
 10
1175.988841663723
 20
734.5569550027005
 30
0.0
 10
1176.059973127252
 20
734.5115047507161
 30
0.0
  0
SPLINE
  5
10A
330
1F
100
AcDbEntity
  8
Miura_Table_9590-51_2D
100
AcDbSpline
210
0.0
220
0.0
230
1.0
 70
    24
 71
     2
 72
     6
 73
     3
 74
     0
 42
0.0000000001
 43
0.0000000001
 40
0.0
 40
0.0
 40
0.0
 40
0.443128027777323
 40
0.443128027777323
 40
0.443128027777323
 10
1174.372145077856
 20
736.4079484672516
 30
0.0
 10
1174.471263794672
 20
736.2097098429688
 30
0.0
 10
1174.570382511487
 20
736.011471218686
 30
0.0
  0
SPLINE
  5
10B
330
1F
100
AcDbEntity
  8
Miura_Table_9590-51_2D
100
AcDbSpline
210
0.0
220
0.0
230
1.0
 70
     8
 71
     3
 72
    13
 73
     9
 74
     0
 42
0.0000000001
 43
0.0000000001
 40
0.0
 40
0.0
 40
0.0
 40
0.0
 40
0.0876034865927682
 40
0.1633834879133184
 40
0.3033602437049218
 40
0.4266564189877514
 40
0.487622525187018
 40
0.563040151376382
 40
0.563040151376382
 40
0.563040151376382
 40
0.563040151376382
 10
1174.646322849616
 20
736.7610795806481
 30
0.0
 10
1174.617279019056
 20
736.7603450782392
 30
0.0
 10
1174.562383385379
 20
736.756231550874
 30
0.0
 10
1174.464950741928
 20
736.729656366826
 30
0.0
 10
1174.367425644174
 20
736.6644153721147
 30
0.0
 10
1174.325650580055
 20
736.5584270514476
 30
0.0
 10
1174.341068496034
 20
736.471287339818
 30
0.0
 10
1174.360702503557
 20
736.4305590674805
 30
0.0
 10
1174.372145077856
 20
736.4079484672516
 30
0.0
  0
SPLINE
  5
10C
330
1F
100
AcDbEntity
  8
Miura_Table_9590-51_2D
100
AcDbSpline
210
0.0
220
0.0
230
1.0
 70
    12
 71
     3
 72
    26
 73
    22
 74
     0
 42
0.0000000001
 43
0.0000000001
 40
-45.87114236150764
 40
-45.87114236150764
 40
-45.87114236150764
 40
-45.87114236150764
 40
-43.74827143190391
 40
-41.95073232195075
 40
-37.96290779321185
 40
-29.2091905711187
 40
-19.77032179938261
 40
-14.83888187793954
 40
-9.83637658103571
 40
-9.83637658103571
 40
-9.83637658103571
 40
-9.16749384238369
 40
-7.554830330056149
 40
-5.942166817728606
 40
-4.329503305401064
 40
-4.329503305401064
 40
-4.329503305401064
 40
0.0
 40
0.0
 40
0.0
 40
1.489429492300063
 40
1.489429492300063
 40
1.489429492300063
 40
1.489429492300063
 10
1062.145095567416
 20
1058.771166093577
 30
0.0
 41
1.0
 10
1061.869651179112
 20
1059.422925452652
 30
0.0
 41
1.0
 10
1061.337641566307
 20
1060.679619556735
 30
0.0
 41
1.0
 10
1060.377384175598
 20
1063.134647862974
 30
0.0
 41
1.0
 10
1058.777038924618
 20
1067.710857459893
 30
0.0
 41
1.0
 10
1056.788460942384
 20
1074.837546362646
 30
0.0
 41
1.0
 10
1055.247004223737
 20
1082.394090060121
 30
0.0
 41
1.0
 10
1054.25107821935
 20
1088.775063412768
 30
0.0
 41
1.0
 10
1053.840309969198
 20
1092.061260542207
 30
0.0
 41
1.0
 10
1053.657469127582
 20
1093.718677229982
 30
0.0
 41
1.0
 10
1053.633076367235
 20
1093.939792860948
 30
0.0
 41
1.0
 10
1053.551019153546
 20
1094.694090340896
 30
0.0
 41
1.0
 10
1053.41809060104
 20
1095.981409231892
 30
0.0
 41
1.0
 10
1053.266157093136
 20
1097.583162046858
 30
0.0
 41
1.0
 10
1053.176205298565
 20
1098.651330093353
 30
0.0
 41
1.0
 10
1053.134469656296
 20
1099.18575335156
 30
0.0
 41
1.0
 10
1053.022101645859
 20
1100.624621306904
 30
0.0
 41
0.999887491868595
 10
1052.936186131098
 20
1102.065310755401
 30
0.0
 41
0.999887491868595
 10
1052.876752110594
 20
1103.507335429216
 30
0.0
 41
1.0
 10
1052.854155193985
 20
1104.055595685327
 30
0.0
 41
0.8233637531700498
 10
1052.466096417023
 20
1104.443552274
 30
0.0
 41
0.8233637531700498
 10
1051.918211517447
 20
1104.465623607966
 30
0.0
 41
1.0
  0
SPLINE
  5
10D
330
1F
100
AcDbEntity
  8
Miura_Table_9590-51_2D
100
AcDbSpline
210
0.0
220
0.0
230
1.0
 70
     8
 71
     3
 72
    15
 73
    11
 74
     0
 42
0.0000000001
 43
0.0000000001
 40
0.0
 40
0.0
 40
0.0
 40
0.0
 40
2.804057442577903
 40
5.813535061115351
 40
7.520094063378131
 40
12.01795169840552
 40
16.91927281030366
 40
18.14949344777262
 40
19.34253087904432
 40
21.65307934478401
 40
21.65307934478401
 40
21.65307934478401
 40
21.65307934478401
 10
1071.414480961118
 20
1039.116141403571
 30
0.0
 10
1070.996479114796
 20
1039.952145096735
 30
0.0
 10
1070.095150695705
 20
1041.7612251724
 30
0.0
 10
1068.969672676049
 20
1044.001038870626
 30
0.0
 10
1067.602193122168
 20
1046.751139687054
 30
0.0
 10
1065.993227930104
 20
1050.085240123502
 30
0.0
 10
1064.513227053153
 20
1053.304703093852
 30
0.0
 10
1063.526924075527
 20
1055.538149632283
 30
0.0
 10
1062.894690594256
 20
1056.983923491754
 30
0.0
 10
1062.444909790162
 20
1058.061742580318
 30
0.0
 10
1062.145095567416
 20
1058.771166093577
 30
0.0
  0
SPLINE
  5
10E
330
1F
100
AcDbEntity
  8
Miura_Table_9590-51_2D
100
AcDbSpline
210
0.0
220
0.0
230
1.0
 70
    24
 71
     2
 72
     6
 73
     3
 74
     0
 42
0.0000000001
 43
0.0000000001
 40
0.0
 40
0.0
 40
0.0
 40
338.0425444558308
 40
338.0425444558308
 40
338.0425444558308
 10
1222.591702623521
 20
736.761697889656
 30
0.0
 10
1147.003091792319
 20
887.9389196466133
 30
0.0
 10
1071.414480961118
 20
1039.116141403571
 30
0.0
  0
LINE
  5
10F
330
1F
100
AcDbEntity
  8
Miura_Table_9590-51_2D
100
AcDbLine
 10
1174.123778266009
 20
736.7612342828158
 30
0.0
 11
1222.591702623521
 21
736.761697889656
 31
0.0
  0
SPLINE
  5
110
330
1F
100
AcDbEntity
  8
Miura_Table_9590-51_2D
100
AcDbSpline
210
0.0
220
0.0
230
1.0
 70
    24
 71
     2
 72
     6
 73
     3
 74
     0
 42
0.0000000001
 43
0.0000000001
 40
0.0
 40
0.0
 40
0.0
 40
327.5547231258826
 40
327.5547231258826
 40
327.5547231258826
 10
1027.636852887185
 20
1029.735085223702
 30
0.0
 10
1100.880315576597
 20
883.2481597532588
 30
0.0
 10
1174.123778266009
 20
736.7612342828158
 30
0.0
  0
SPLINE
  5
111
330
1F
100
AcDbEntity
  8
Miura_Table_9590-51_2D
100
AcDbSpline
210
0.0
220
0.0
230
1.0
 70
     8
 71
     3
 72
    46
 73
    42
 74
     0
 42
0.0000000001
 43
0.0000000001
 40
0.0
 40
0.0
 40
0.0
 40
0.0
 40
4.445528572919531
 40
9.136184748431083
 40
13.56629843505467
 40
20.52288534708523
 40
22.80023416032957
 40
26.47397545349463
 40
30.12593374789432
 40
33.12390876023884
 40
33.12390876023884
 40
33.12390876023884
 40
33.44213680694137
 40
33.79291129403629
 40
34.65617602833069
 40
35.95951821029371
 40
35.95951821029371
 40
35.95951821029371
 40
37.26413056451781
 40
38.4014712048069
 40
40.57038699906815
 40
42.7593198436251
 40
44.84110739718989
 40
45.77561526079327
 40
46.6545373728493
 40
47.46896338621529
 40
48.21895529454341
 40
48.90499283523491
 40
49.56381445895246
 40
50.22094840567009
 40
51.02557524063457
 40
51.02557524063457
 40
51.02557524063457
 40
56.82679662646953
 40
56.82679662646953
 40
56.82679662646953
 40
57.82809886771776
 40
58.78296253335561
 40
60.89975999567615
 40
62.90994723231162
 40
65.188593675824
 40
65.188593675824
 40
65.188593675824
 40
65.188593675824
 10
1014.694300442762
 20
1087.927672023493
 30
0.0
 10
1014.594747179337
 20
1086.449177903336
 30
0.0
 10
1014.374995813836
 20
1083.41168504904
 30
0.0
 10
1014.008096157407
 20
1078.904458641647
 30
0.0
 10
1013.537143905786
 20
1073.56605108931
 30
0.0
 10
1013.11300411694
 20
1069.031151871563
 30
0.0
 10
1012.723316037988
 20
1064.746271852089
 30
0.0
 10
1012.447282254334
 20
1061.557165954203
 30
0.0
 10
1012.189730628359
 20
1058.125478324668
 30
0.0
 10
1012.068019639852
 20
1055.908696118159
 30
0.0
 10
1012.029782942443
 20
1054.910089723591
 30
0.0
 10
1012.025724294416
 20
1054.804092287932
 30
0.0
 10
1012.017640654382
 20
1054.581234776439
 30
0.0
 10
1012.002726513984
 20
1054.070697736714
 30
0.0
 10
1011.981561242114
 20
1053.23182984218
 30
0.0
 10
1011.972959034546
 20
1052.509649277224
 30
0.0
 10
1011.973001572
 20
1052.075194912054
 30
0.0
 10
1011.972613252934
 20
1051.640358290719
 30
0.0
 10
1011.983055063365
 20
1050.826180860239
 30
0.0
 10
1012.080663364266
 20
1049.291844276873
 30
0.0
 10
1012.360927962279
 20
1047.477974189235
 30
0.0
 10
1012.960972075298
 20
1045.412268623691
 30
0.0
 10
1013.665968867148
 20
1043.821862157884
 30
0.0
 10
1014.333109578785
 20
1042.70625088882
 30
0.0
 10
1014.849309687201
 20
1041.997466335138
 30
0.0
 10
1015.395605968583
 20
1041.39158018941
 30
0.0
 10
1015.964116688896
 20
1040.899634924631
 30
0.0
 10
1016.552781056001
 20
1040.520533260807
 30
0.0
 10
1017.164586118032
 20
1040.248750939409
 30
0.0
 10
1017.849277024109
 20
1040.065435725984
 30
0.0
 10
1018.333922640355
 20
1040.006655535329
 30
0.0
 10
1018.600348469272
 20
1039.977259767066
 30
0.0
 10
1020.523048955118
 20
1039.763263494276
 30
0.0
 10
1022.733300620795
 20
1038.865619919088
 30
0.0
 10
1023.68347155018
 20
1037.181543575525
 30
0.0
 10
1023.847126817502
 20
1036.890653392131
 30
0.0
 10
1024.166055445945
 20
1036.32191241685
 30
0.0
 10
1024.820713400268
 20
1035.132509566117
 30
0.0
 10
1025.622887532142
 20
1033.640507056688
 30
0.0
 10
1026.614912922653
 20
1031.749703364997
 30
0.0
 10
1027.297175422174
 20
1030.414440154149
 30
0.0
 10
1027.636852887185
 20
1029.735085223702
 30
0.0
  0
SPLINE
  5
112
330
1F
100
AcDbEntity
  8
Miura_Table_9590-51_2D
100
AcDbSpline
210
0.0
220
0.0
230
1.0
 70
     8
 71
     3
 72
    13
 73
     9
 74
     0
 42
0.0000000001
 43
0.0000000001
 40
0.0
 40
0.0
 40
0.0
 40
0.0
 40
1.195776873000196
 40
2.341423735031693
 40
4.878196780698156
 40
8.059055609734553
 40
9.89647813407859
 40
11.23169972175378
 40
11.23169972175378
 40
11.23169972175378
 40
11.23169972175378
 10
1015.309944451542
 20
1099.147226037885
 30
0.0
 10
1015.294400379541
 20
1098.748936831751
 30
0.0
 10
1015.26247246765
 20
1097.969114326615
 30
0.0
 10
1015.188730073534
 20
1096.344716455343
 30
0.0
 10
1015.070107418611
 20
1094.060017794988
 30
0.0
 10
1014.922548446297
 20
1091.545983211598
 30
0.0
 10
1014.792106752059
 20
1089.432170348046
 30
0.0
 10
1014.72420147021
 20
1088.371740773707
 30
0.0
 10
1014.694300442761
 20
1087.927672023493
 30
0.0
  0
SPLINE
  5
113
330
1F
100
AcDbEntity
  8
Miura_Table_9590-51_2D
100
AcDbSpline
210
0.0
220
0.0
230
1.0
 70
    12
 71
     2
 72
     6
 73
     3
 74
     0
 42
0.0000000001
 43
0.0000000001
 40
0.0
 40
0.0
 40
0.0
 40
4.338894157400504
 40
4.338894157400504
 40
4.338894157400504
 10
1015.439129692026
 20
1103.486768506607
 30
0.0
 41
1.0
 10
1015.394549655904
 20
1101.315083963215
 30
0.0
 41
0.999957710116485
 10
1015.309944451542
 20
1099.147226037885
 30
0.0
 41
1.0
  0
SPLINE
  5
114
330
1F
100
AcDbEntity
  8
Miura_Table_9590-51_2D
100
AcDbSpline
210
0.0
220
0.0
230
1.0
 70
    12
 71
     2
 72
     6
 73
     3
 74
     0
 42
0.0000000001
 43
0.0000000001
 40
0.0
 40
0.0
 40
0.0
 40
1.517675704074519
 40
1.517675704074519
 40
1.517675704074519
 10
1016.406843154813
 20
1104.46595143679
 30
0.0
 41
1.0
 10
1015.458590959305
 20
1104.434810209151
 30
0.0
 41
0.7256366645658145
 10
1015.439129692026
 20
1103.486768506607
 30
0.0
 41
1.0
  0
POLYLINE
  5
115
330
1F
100
AcDbEntity
  8
Miura_Table_9590-51_2D
100
AcDb2dPolyline
 66
     1
 10
0.0
 20
0.0
 30
0.0
  0
VERTEX
  5
116
330
115
100
AcDbEntity
  8
Miura_Table_9590-51_2D
100
AcDbVertex
100
AcDb2dVertex
 10
664.9896281370443
 20
736.7615524183595
 30
0.0
  0
VERTEX
  5
117
330
115
100
AcDbEntity
  8
Miura_Table_9590-51_2D
100
AcDbVertex
100
AcDb2dVertex
 10
707.6281674899533
 20
736.7615523274726
 30
0.0
  0
SEQEND
  5
118
330
115
100
AcDbEntity
  8
Miura_Table_9590-51_2D
  0
SPLINE
  5
119
330
1F
100
AcDbEntity
  8
Miura_Table_9590-51_2D
100
AcDbSpline
210
0.0
220
0.0
230
1.0
 70
    24
 71
     2
 72
     6
 73
     3
 74
     0
 42
0.0000000001
 43
0.0000000001
 40
0.0
 40
0.0
 40
0.0
 40
0.0003644189914382
 40
0.0003644189914382
 40
0.0003644189914382
 10
1002.675268403379
 20
1109.466471426284
 30
0.0
 10
1002.675086193883
 20
1109.466471426259
 30
0.0
 10
1002.674903984388
 20
1109.466471426234
 30
0.0
  0
SPLINE
  5
11A
330
1F
100
AcDbEntity
  8
Miura_Table_9590-51_2D
100
AcDbSpline
210
0.0
220
0.0
230
1.0
 70
     8
 71
     3
 72
    12
 73
     8
 74
     0
 42
0.0000000001
 43
0.0000000001
 40
0.0
 40
0.0
 40
0.0
 40
0.0
 40
0.1167120639292131
 40
0.2430944609352435
 40
0.5000268890606814
 40
0.7758895689378357
 40
1.056331722181715
 40
1.056331722181715
 40
1.056331722181715
 40
1.056331722181715
 10
1014.738937870335
 20
1104.465807910963
 30
0.0
 10
1014.777802574896
 20
1104.464239702867
 30
0.0
 10
1014.85852713477
 20
1104.454482308381
 30
0.0
 10
1015.019123716888
 20
1104.407974053411
 30
0.0
 10
1015.211972177605
 20
1104.296859063845
 30
0.0
 10
1015.396176327388
 20
1104.094003712692
 30
0.0
 10
1015.480131086037
 20
1103.926907829083
 30
0.0
 10
1015.510721169867
 20
1103.838555536915
 30
0.0
  0
ARC
  5
11B
330
1F
100
AcDbEntity
  8
Miura_Table_9590-51_2D
100
AcDbCircle
 10
2164.783337736319
 20
1105.06580783149
 30
0.0
 40
10.01354662635185
100
AcDbArc
 50
180.0
 51
183.4313498469807
  0
SPLINE
  5
11C
330
1F
100
AcDbEntity
  8
Miura_Table_9590-51_2D
100
AcDbSpline
210
0.0
220
0.0
230
1.0
 70
    12
 71
     2
 72
     6
 73
     3
 74
     0
 42
0.0000000001
 43
0.0000000001
 40
-3.332521385645805
 40
-3.332521385645805
 40
-3.332521385645805
 40
0.0
 40
0.0
 40
0.0
 10
2158.120264496237
 20
1104.46647146934
 30
0.0
 41
1.0
 10
2156.454003803413
 20
1104.466471489624
 30
0.0
 41
0.9999999999999998
 10
2154.787743110591
 20
1104.466471434943
 30
0.0
 41
1.0
  0
SPLINE
  5
11D
330
1F
100
AcDbEntity
  8
Miura_Table_9590-51_2D
100
AcDbSpline
210
0.0
220
0.0
230
1.0
 70
    24
 71
     2
 72
     6
 73
     3
 74
     0
 42
0.0000000001
 43
0.0000000001
 40
-8.348680839593044
 40
-8.348680839593044
 40
-8.348680839593044
 40
0.0
 40
0.0
 40
0.0
 10
2166.46894533583
 20
1104.466471440472
 30
0.0
 10
2162.294604916033
 20
1104.466471454906
 30
0.0
 10
2158.120264496237
 20
1104.46647146934
 30
0.0
  0
SPLINE
  5
11E
330
1F
100
AcDbEntity
  8
Miura_Table_9590-51_2D
100
AcDbSpline
210
0.0
220
0.0
230
1.0
 70
    24
 71
     2
 72
     6
 73
     3
 74
     0
 42
0.0000000001
 43
0.0000000001
 40
-0.0160983755549751
 40
-0.0160983755549751
 40
-0.0160983755549751
 40
0.0
 40
0.0
 40
0.0
 10
2166.485043711385
 20
1104.466471440376
 30
0.0
 10
2166.476994523607
 20
1104.466471440424
 30
0.0
 10
2166.46894533583
 20
1104.466471440472
 30
0.0
  0
SPLINE
  5
11F
330
1F
100
AcDbEntity
  8
Miura_Table_9590-51_2D
100
AcDbSpline
210
0.0
220
0.0
230
1.0
 70
    12
 71
     3
 72
    10
 73
     6
 74
     0
 42
0.0000000001
 43
0.0000000001
 40
-1.41140173157308
 40
-1.41140173157308
 40
-1.41140173157308
 40
-1.41140173157308
 40
-0.7080051891948135
 40
-0.7080051891948135
 40
-0.0049548717152337
 40
-0.0049548717152337
 40
-0.0049548717152337
 40
-0.0049548717152337
 10
2167.330987370671
 20
1105.302581113775
 30
0.0
 41
1.0
 10
2167.297293670917
 20
1105.068707653356
 30
0.0
 41
1.0
 10
2167.192868740042
 20
1104.856711532567
 30
0.0
 41
1.0
 10
2166.88142945237
 20
1104.550184153615
 30
0.0
 41
1.0
 10
2166.685759488145
 20
1104.466466121312
 30
0.0
 41
1.0
 10
2166.485043711385
 20
1104.466471440376
 30
0.0
 41
1.0
  0
SPLINE
  5
120
330
1F
100
AcDbEntity
  8
Miura_Table_9590-51_2D
100
AcDbSpline
210
0.0
220
0.0
230
1.0
 70
     8
 71
     3
 72
    18
 73
    14
 74
     0
 42
0.0000000001
 43
0.0000000001
 40
-14.64921461756716
 40
-14.64921461756716
 40
-14.64921461756716
 40
-14.64921461756716
 40
-8.184836209513707
 40
-7.290264732586142
 40
-6.899780132333247
 40
-6.604817185447027
 40
-6.281926508383727
 40
-5.91772510768846
 40
-5.25048406050812
 40
-3.984914730732004
 40
-2.69671351258406
 40
-1.37770462440535
 40
0.0
 40
0.0
 40
0.0
 40
0.0
 10
2179.769667463081
 20
1109.466471474574
 30
0.0
 10
2177.61496283773
 20
1109.466380009482
 30
0.0
 10
2175.162104925188
 20
1109.466625429484
 30
0.0
 10
2172.579055861986
 20
1109.46635888681
 30
0.0
 10
2172.052436456219
 20
1109.466758622497
 30
0.0
 10
2171.716244417137
 20
1109.467528339877
 30
0.0
 10
2171.389344520314
 20
1109.448164362409
 30
0.0
 10
2170.941642995093
 20
1109.386628680558
 30
0.0
 10
2170.197699394003
 20
1109.197889128681
 30
0.0
 10
2169.229814734737
 20
1108.70592108697
 30
0.0
 10
2168.293637731954
 20
1107.79660359015
 30
0.0
 10
2167.630388276152
 20
1106.632135372123
 30
0.0
 10
2167.396382593216
 20
1105.75708006078
 30
0.0
 10
2167.330987370671
 20
1105.302581113775
 30
0.0
  0
SPLINE
  5
121
330
1F
100
AcDbEntity
  8
Miura_Table_9590-51_2D
100
AcDbSpline
210
0.0
220
0.0
230
1.0
 70
     8
 71
     3
 72
    18
 73
    14
 74
     0
 42
0.0000000001
 43
0.0000000001
 40
0.0
 40
0.0
 40
0.0
 40
0.0
 40
1.377704624405373
 40
2.696713512584107
 40
3.984914730732072
 40
5.250484060508209
 40
5.917725107688561
 40
6.281926508383835
 40
6.60481718544714
 40
6.899780132333365
 40
7.290264732586267
 40
8.184836209513849
 40
14.64921461756716
 40
14.64921461756716
 40
14.64921461756716
 40
14.64921461756716
 10
2192.20834755549
 20
1105.302581113775
 30
0.0
 10
2192.142952332945
 20
1105.75708006078
 30
0.0
 10
2191.908946650009
 20
1106.632135372123
 30
0.0
 10
2191.245697194207
 20
1107.79660359015
 30
0.0
 10
2190.309520191424
 20
1108.70592108697
 30
0.0
 10
2189.341635532158
 20
1109.197889128681
 30
0.0
 10
2188.597691931068
 20
1109.386628680558
 30
0.0
 10
2188.149990405847
 20
1109.448164362409
 30
0.0
 10
2187.823090509024
 20
1109.467528339877
 30
0.0
 10
2187.486898469942
 20
1109.466758622497
 30
0.0
 10
2186.960279064176
 20
1109.46635888681
 30
0.0
 10
2184.377230000973
 20
1109.466625429484
 30
0.0
 10
2181.924372088431
 20
1109.466380009482
 30
0.0
 10
2179.769667463081
 20
1109.466471474574
 30
0.0
  0
SPLINE
  5
122
330
1F
100
AcDbEntity
  8
Miura_Table_9590-51_2D
100
AcDbSpline
210
0.0
220
0.0
230
1.0
 70
    12
 71
     3
 72
    10
 73
     6
 74
     0
 42
0.0000000001
 43
0.0000000001
 40
0.0049548717152337
 40
0.0049548717152337
 40
0.0049548717152337
 40
0.0049548717152337
 40
0.7080051891948135
 40
0.7080051891948135
 40
1.41140173157308
 40
1.41140173157308
 40
1.41140173157308
 40
1.41140173157308
 10
2193.054291214777
 20
1104.466471440376
 30
0.0
 41
1.0
 10
2192.853575438016
 20
1104.466466121312
 30
0.0
 41
1.0
 10
2192.657905473791
 20
1104.550184153615
 30
0.0
 41
1.0
 10
2192.346466186119
 20
1104.856711532567
 30
0.0
 41
1.0
 10
2192.242041255244
 20
1105.068707653356
 30
0.0
 41
1.0
 10
2192.20834755549
 20
1105.302581113775
 30
0.0
 41
1.0
  0
SPLINE
  5
123
330
1F
100
AcDbEntity
  8
Miura_Table_9590-51_2D
100
AcDbSpline
210
0.0
220
0.0
230
1.0
 70
    24
 71
     2
 72
     6
 73
     3
 74
     0
 42
0.0000000001
 43
0.0000000001
 40
0.0
 40
0.0
 40
0.0
 40
0.0160983755549751
 40
0.0160983755549751
 40
0.0160983755549751
 10
2193.070389590332
 20
1104.466471440472
 30
0.0
 10
2193.062340402554
 20
1104.466471440424
 30
0.0
 10
2193.054291214777
 20
1104.466471440376
 30
0.0
  0
SPLINE
  5
124
330
1F
100
AcDbEntity
  8
Miura_Table_9590-51_2D
100
AcDbSpline
210
0.0
220
0.0
230
1.0
 70
    24
 71
     2
 72
     6
 73
     3
 74
     0
 42
0.0000000001
 43
0.0000000001
 40
0.0
 40
0.0
 40
0.0
 40
8.348680839593044
 40
8.348680839593044
 40
8.348680839593044
 10
2201.419070429924
 20
1104.46647146934
 30
0.0
 10
2197.244730010128
 20
1104.466471454906
 30
0.0
 10
2193.070389590332
 20
1104.466471440472
 30
0.0
  0
SPLINE
  5
125
330
1F
100
AcDbEntity
  8
Miura_Table_9590-51_2D
100
AcDbSpline
210
0.0
220
0.0
230
1.0
 70
    12
 71
     2
 72
     6
 73
     3
 74
     0
 42
0.0000000001
 43
0.0000000001
 40
0.0
 40
0.0
 40
0.0
 40
3.332521385645805
 40
3.332521385645805
 40
3.332521385645805
 10
2204.75159181557
 20
1104.466471434943
 30
0.0
 41
1.0
 10
2203.085331122748
 20
1104.466471489624
 30
0.0
 41
0.9999999999999998
 10
2201.419070429924
 20
1104.46647146934
 30
0.0
 41
1.0
  0
ARC
  5
126
330
1F
100
AcDbEntity
  8
Miura_Table_9590-51_2D
100
AcDbCircle
 10
2194.755997189842
 20
1105.06580783149
 30
0.0
 40
10.01354662635185
100
AcDbArc
 50
356.5686501530192
 51
0.0
  0
SPLINE
  5
127
330
1F
100
AcDbEntity
  8
Miura_Table_9590-51_2D
100
AcDbSpline
210
0.0
220
0.0
230
1.0
 70
    12
 71
     3
 72
    12
 73
     8
 74
     0
 42
0.0000000001
 43
0.0000000001
 40
-0.5262507170806857
 40
-0.5262507170806857
 40
-0.5262507170806857
 40
-0.5262507170806857
 40
-0.5145170103963779
 40
-0.5145170103963779
 40
-0.2542829628112115
 40
-0.2542829628112115
 40
-0.0317448945959232
 40
-0.0317448945959232
 40
-0.0317448945959232
 40
-0.0317448945959232
 10
2158.642458289271
 20
1104.211803801938
 30
0.0
 41
1.0
 10
2158.639981611302
 20
1104.216240539904
 30
0.0
 41
1.0
 10
2158.637490273881
 20
1104.220609476445
 30
0.0
 41
1.0
 10
2158.579431416542
 20
1104.320257467539
 30
0.0
 41
1.0
 10
2158.520317347722
 20
1104.380385927735
 30
0.0
 41
1.0
 10
2158.416761106809
 20
1104.44820462226
 30
0.0
 41
1.0
 10
2158.371159886627
 20
1104.462680438887
 30
0.0
 41
1.0
 10
2158.327638953323
 20
1104.465809095335
 30
0.0
 41
1.0
  0
SPLINE
  5
128
330
1F
100
AcDbEntity
  8
Miura_Table_9590-51_2D
100
AcDbSpline
210
0.0
220
0.0
230
1.0
 70
    12
 71
     3
 72
    18
 73
    14
 74
     0
 42
0.0000000001
 43
0.0000000001
 40
-17.08061118246446
 40
-17.08061118246446
 40
-17.08061118246446
 40
-17.08061118246446
 40
-15.57895392647034
 40
-15.57895392647034
 40
-15.57895392647034
 40
-11.24807156559795
 40
-11.24807156559795
 40
-11.24807156559795
 40
-8.873594413233326
 40
-6.279800604855796
 40
-3.187801552011507
 40
-1.394045745757029
 40
0.0
 40
0.0
 40
0.0
 40
0.0
 10
2159.275416937541
 20
1104.46589747192
 30
0.0
 41
1.0
 10
2158.72156779892
 20
1104.44721003455
 30
0.0
 41
0.8207490813200228
 10
2158.329380628219
 20
1104.055524626636
 30
0.0
 41
0.8207490813200228
 10
2158.309755157371
 20
1103.501471155786
 30
0.0
 41
1.0
 10
2158.258339736448
 20
1102.058432867756
 30
0.0
 41
0.9999156577956789
 10
2158.183965003631
 20
1100.616312728691
 30
0.0
 41
0.9999156577956789
 10
2158.08664977771
 20
1099.175475633365
 30
0.0
 41
1.0
 10
2158.033407834938
 20
1098.385127498741
 30
0.0
 41
1.0
 10
2157.909333029813
 20
1096.733643729753
 30
0.0
 41
1.0
 10
2157.669221736133
 20
1094.057579745481
 30
0.0
 41
1.0
 10
2157.418181788957
 20
1091.577039745975
 30
0.0
 41
1.0
 10
2157.194200276786
 20
1089.49578689144
 30
0.0
 41
1.0
 10
2157.07597827568
 20
1088.437646017108
 30
0.0
 41
1.0
 10
2157.022210474763
 20
1087.976083113871
 30
0.0
 41
1.0
  0
SPLINE
  5
129
330
1F
100
AcDbEntity
  8
Miura_Table_9590-51_2D
100
AcDbSpline
210
0.0
220
0.0
230
1.0
 70
     8
 71
     3
 72
    16
 73
    12
 74
     0
 42
0.0000000001
 43
0.0000000001
 40
-33.3642801434906
 40
-33.3642801434906
 40
-33.3642801434906
 40
-33.3642801434906
 40
-24.17426881783292
 40
-19.70973193739507
 40
-17.41415730793448
 40
-12.69286067967022
 40
-10.39643749466709
 40
-6.695123544693319
 40
-3.023047667395003
 40
-1.441026840298903
 40
0.0
 40
0.0
 40
0.0
 40
0.0
 10
2157.022210474764
 20
1087.976083113871
 30
0.0
 10
2156.6677512669
 20
1084.933272765042
 30
0.0
 10
2156.058628142661
 20
1080.422227868916
 30
0.0
 10
2155.254509399722
 20
1075.16667541404
 30
0.0
 10
2154.656999854518
 20
1071.386446340452
 30
0.0
 10
2154.163212687367
 20
1068.32155526696
 30
0.0
 10
2153.607785105427
 20
1064.791948191084
 30
0.0
 10
2153.129881626871
 20
1061.604276539041
 30
0.0
 10
2152.745347233301
 20
1058.643703745798
 30
0.0
 10
2152.518335784192
 20
1056.423413315923
 30
0.0
 10
2152.437695749676
 20
1055.418916792621
 30
0.0
 10
2152.405358037754
 20
1054.93944021105
 30
0.0
  0
SPLINE
  5
12A
330
1F
100
AcDbEntity
  8
Miura_Table_9590-51_2D
100
AcDbSpline
210
0.0
220
0.0
230
1.0
 70
     8
 71
     3
 72
    12
 73
     8
 74
     0
 42
0.0000000001
 43
0.0000000001
 40
-2.866008512548971
 40
-2.866008512548971
 40
-2.866008512548971
 40
-2.866008512548971
 40
-2.1803500891602
 40
-1.316467333291305
 40
-0.6436630852735566
 40
-0.3236325452860642
 40
0.0
 40
0.0
 40
0.0
 40
0.0
 10
2152.405358037754
 20
1054.93944021105
 30
0.0
 10
2152.389819393279
 20
1054.711192896793
 30
0.0
 10
2152.362220015965
 20
1054.195410314586
 30
0.0
 10
2152.330474106957
 20
1053.455291217569
 30
0.0
 10
2152.313064119457
 20
1052.836612292521
 30
0.0
 10
2152.307222232113
 20
1052.397817796692
 30
0.0
 10
2152.305997356085
 20
1052.183270387047
 30
0.0
 10
2152.305995163183
 20
1052.075380033514
 30
0.0
  0
SPLINE
  5
12B
330
1F
100
AcDbEntity
  8
Miura_Table_9590-51_2D
100
AcDbSpline
210
0.0
220
0.0
230
1.0
 70
     8
 71
     3
 72
    13
 73
     9
 74
     0
 42
0.0000000001
 43
0.0000000001
 40
-8.067492795701002
 40
-8.067492795701002
 40
-8.067492795701002
 40
-8.067492795701002
 40
-6.929436622567084
 40
-5.933962300934526
 40
-4.0143213514352
 40
-2.037649979843423
 40
-1.015652899145925
 40
0.0
 40
0.0
 40
0.0
 40
0.0
 10
2152.305995163183
 20
1052.075380033514
 30
0.0
 10
2152.305341869142
 20
1051.696037052448
 30
0.0
 10
2152.319029450323
 20
1050.984659440858
 30
0.0
 10
2152.437655098845
 20
1049.637878771089
 30
0.0
 10
2152.782430492817
 20
1048.037985857173
 30
0.0
 10
2153.404849371165
 20
1046.514478138752
 30
0.0
 10
2154.05994479623
 20
1045.346858911683
 30
0.0
 10
2154.439981147229
 20
1044.782929317834
 30
0.0
 10
2154.640117490658
 20
1044.509986015373
 30
0.0
  0
SPLINE
  5
12C
330
1F
100
AcDbEntity
  8
Miura_Table_9590-51_2D
100
AcDbSpline
210
0.0
220
0.0
230
1.0
 70
     8
 71
     3
 72
    13
 73
     9
 74
     0
 42
0.0000000001
 43
0.0000000001
 40
0.0
 40
0.0
 40
0.0
 40
0.0
 40
0.0787536068012881
 40
0.1449423458634473
 40
0.266120321626831
 40
0.3853723078620238
 40
0.4472243187928732
 40
0.5284135023430945
 40
0.5284135023430945
 40
0.5284135023430945
 40
0.5284135023430945
 10
1905.991129833553
 20
736.7611716484248
 30
0.0
 10
1906.017318482893
 20
736.7606083892861
 30
0.0
 10
1906.065838317604
 20
736.7561153689901
 30
0.0
 10
1906.150469201884
 20
736.7285589514192
 30
0.0
 10
1906.227668084653
 20
736.6516036317396
 30
0.0
 10
1906.232544843978
 20
736.5441344084463
 30
0.0
 10
1906.193263747746
 20
736.4650980361255
 30
0.0
 10
1906.162718929647
 20
736.4282770231232
 30
0.0
 10
1906.144784948697
 20
736.4079853519816
 30
0.0
  0
SPLINE
  5
12D
330
1F
100
AcDbEntity
  8
Miura_Table_9590-51_2D
100
AcDbSpline
210
0.0
220
0.0
230
1.0
 70
    24
 71
     2
 72
     6
 73
     3
 74
     0
 42
0.0000000001
 43
0.0000000001
 40
0.0
 40
0.0
 40
0.0
 40
0.524413613475097
 40
0.524413613475097
 40
0.524413613475097
 10
1906.144784948697
 20
736.4079853519816
 30
0.0
 10
1905.973030487535
 20
736.2096604770276
 30
0.0
 10
1905.801276026373
 20
736.0113356020736
 30
0.0
  0
SPLINE
  5
12E
330
1F
100
AcDbEntity
  8
Miura_Table_9590-51_2D
100
AcDbSpline
210
0.0
220
0.0
230
1.0
 70
     8
 71
     3
 72
    12
 73
     8
 74
     0
 42
0.0000000001
 43
0.0000000001
 40
0.0
 40
0.0
 40
0.0
 40
0.0
 40
0.2152508561583033
 40
0.4345163837059823
 40
1.014949707012151
 40
1.738429140534348
 40
2.240363334908873
 40
2.240363334908873
 40
2.240363334908873
 40
2.240363334908873
 10
1905.801276026373
 20
736.0113356020736
 30
0.0
 10
1905.754236886321
 20
735.9567868676686
 30
0.0
 10
1905.658398560544
 20
735.8481308547914
 30
0.0
 10
1905.422042273023
 20
735.6059468701633
 30
0.0
 10
1905.05003674513
 20
735.2601966242464
 30
0.0
 10
1904.596235136993
 20
734.8646913635971
 30
0.0
 10
1904.278023166358
 20
734.6082898292361
 30
0.0
 10
1904.141382716477
 20
734.51152842593
 30
0.0
  0
SPLINE
  5
12F
330
1F
100
AcDbEntity
  8
Miura_Table_9590-51_2D
100
AcDbSpline
210
0.0
220
0.0
230
1.0
 70
     8
 71
     3
 72
    12
 73
     8
 74
     0
 42
0.0000000001
 43
0.0000000001
 40
0.0
 40
0.0
 40
0.0
 40
0.0
 40
2.849423647238892
 40
5.573258475154479
 40
11.17057419198277
 40
16.6544972940824
 40
22.23406149512204
 40
22.23406149512204
 40
22.23406149512204
 40
22.23406149512204
 10
1904.141382716477
 20
734.51152842593
 30
0.0
 10
1903.369151948698
 20
733.9584406699785
 30
0.0
 10
1901.816689980687
 20
732.9355748006355
 30
0.0
 10
1898.560256035673
 20
731.1247842009034
 30
0.0
 10
1894.297930299859
 20
729.3544568407647
 30
0.0
 10
1888.889281230531
 20
728.0256255236986
 30
0.0
 10
1885.205040265521
 20
727.6984116620263
 30
0.0
 10
1883.345320683605
 20
727.6766895913638
 30
0.0
  0
SPLINE
  5
130
330
1F
100
AcDbEntity
  8
Miura_Table_9590-51_2D
100
AcDbSpline
210
0.0
220
0.0
230
1.0
 70
     8
 71
     5
 72
    12
 73
     6
 74
     0
 42
0.0000000001
 43
0.0000000001
 40
-1.0
 40
-1.0
 40
-1.0
 40
-1.0
 40
-1.0
 40
-1.0
 40
0.0
 40
0.0
 40
0.0
 40
0.0
 40
0.0
 40
0.0
 10
1883.345320683605
 20
727.6766895913638
 30
0.0
 10
1883.262550459504
 20
727.6757228108479
 30
0.0
 10
1883.179777472476
 20
727.6749925764805
 30
0.0
 10
1883.096999941733
 20
727.6745522090166
 30
0.0
 10
1883.01422408578
 20
727.6743075678305
 30
0.0
 10
1882.931448215872
 20
727.6743027510499
 30
0.0
  0
SPLINE
  5
131
330
1F
100
AcDbEntity
  8
Miura_Table_9590-51_2D
100
AcDbSpline
210
0.0
220
0.0
230
1.0
 70
     8
 71
     3
 72
    12
 73
     8
 74
     0
 42
0.0000000001
 43
0.0000000001
 40
0.0
 40
0.0
 40
0.0
 40
0.0
 40
2.782398956976484
 40
5.60255636646087
 40
11.31396921066574
 40
16.96595331393149
 40
22.64829073387322
 40
22.64829073387322
 40
22.64829073387322
 40
22.64829073387322
 10
1882.931448215872
 20
727.6743027510499
 30
0.0
 10
1882.003976049417
 20
727.6742487808535
 30
0.0
 10
1880.136494140271
 20
727.7468905670037
 30
0.0
 10
1876.387602672246
 20
728.1826078470745
 30
0.0
 10
1871.773427970655
 20
729.2788570127932
 30
0.0
 10
1866.5022072742
 20
731.4452777304025
 30
0.0
 10
1863.261421648857
 20
733.4091869519041
 30
0.0
 10
1861.721153289168
 20
734.5115865299083
 30
0.0
  0
SPLINE
  5
132
330
1F
100
AcDbEntity
  8
Miura_Table_9590-51_2D
100
AcDbSpline
210
0.0
220
0.0
230
1.0
 70
     8
 71
     3
 72
    16
 73
    12
 74
     0
 42
0.0000000001
 43
0.0000000001
 40
0.0
 40
0.0
 40
0.0
 40
0.0
 40
0.1449268675943032
 40
0.2673386247060249
 40
0.5163843678365243
 40
0.7646474073394522
 40
0.9969847930951103
 40
1.194773719318494
 40
1.376962800151374
 40
1.556234553971886
 40
1.789638013214852
 40
1.789638013214852
 40
1.789638013214852
 40
1.789638013214852
 10
1861.721153289168
 20
734.5115865299083
 30
0.0
 10
1861.681778528644
 20
734.5396782401776
 30
0.0
 10
1861.60966780464
 20
734.5921167817205
 30
0.0
 10
1861.479096258148
 20
734.704538173886
 30
0.0
 10
1861.340706319511
 20
734.8588915344744
 30
0.0
 10
1861.210846071965
 20
735.0656515694939
 30
0.0
 10
1861.128706638327
 20
735.2776999572234
 30
0.0
 10
1861.101722021954
 20
735.4817847723934
 30
0.0
 10
1861.131090829929
 20
735.6681052690246
 30
0.0
 10
1861.21962537944
 20
735.8476685157327
 30
0.0
 10
1861.30939114453
 20
735.9528009813394
 30
0.0
 10
1861.360418665928
 20
736.0115078286065
 30
0.0
  0
SPLINE
  5
133
330
1F
100
AcDbEntity
  8
Miura_Table_9590-51_2D
100
AcDbSpline
210
0.0
220
0.0
230
1.0
 70
    24
 71
     2
 72
     6
 73
     3
 74
     0
 42
0.0000000001
 43
0.0000000001
 40
0.0
 40
0.0
 40
0.0
 40
0.5244495011186676
 40
0.5244495011186676
 40
0.5244495011186676
 10
1861.360418665928
 20
736.0115078286065
 30
0.0
 10
1861.532167031593
 20
736.2098265089254
 30
0.0
 10
1861.703915397257
 20
736.4081451892444
 30
0.0
  0
SPLINE
  5
134
330
1F
100
AcDbEntity
  8
Miura_Table_9590-51_2D
100
AcDbSpline
210
0.0
220
0.0
230
1.0
 70
     8
 71
     3
 72
    12
 73
     8
 74
     0
 42
0.0000000001
 43
0.0000000001
 40
0.0
 40
0.0
 40
0.0
 40
0.0
 40
0.089002379783791
 40
0.1797960093880787
 40
0.4111935266141908
 40
0.6556287843907624
 40
0.8529822444616082
 40
0.8529822444616082
 40
0.8529822444616082
 40
0.8529822444616082
 10
1861.703915397257
 20
736.4081451892444
 30
0.0
 10
1861.723227359092
 20
736.4308729940983
 30
0.0
 10
1861.764021036346
 20
736.4750010540865
 30
0.0
 10
1861.872697677545
 20
736.5592535715889
 30
0.0
 10
1862.03921885958
 20
736.6495107501992
 30
0.0
 10
1862.248725841103
 20
736.7313110992031
 30
0.0
 10
1862.394245203009
 20
736.7591599476868
 30
0.0
 10
1862.460135451981
 20
736.7609436789573
 30
0.0
  0
SPLINE
  5
135
330
1F
100
AcDbEntity
  8
Miura_Table_9590-51_2D
100
AcDbSpline
210
0.0
220
0.0
230
1.0
 70
    12
 71
     3
 72
    15
 73
    11
 74
     0
 42
0.0000000001
 43
0.0000000001
 40
-2.500401592028198
 40
-2.500401592028198
 40
-2.500401592028198
 40
-2.500401592028198
 40
-2.092447594524908
 40
-1.587472916212024
 40
-0.9787609925742227
 40
-0.6090244151814629
 40
0.0
 40
0.0
 40
0.0
 40
0.3719149623461165
 40
0.3719149623461165
 40
0.3719149623461165
 40
0.3719149623461165
 10
2154.76979110997
 20
1107.810497893025
 30
0.0
 41
1.0
 10
2154.750488716982
 20
1107.675882661734
 30
0.0
 41
1.0
 10
2154.716737136553
 20
1107.373368955858
 30
0.0
 41
1.0
 10
2154.680686392007
 20
1106.867373870798
 30
0.0
 41
1.0
 10
2154.657595128821
 20
1106.37342281804
 30
0.0
 41
1.0
 10
2154.637522976981
 20
1105.844646550358
 30
0.0
 41
1.0
 10
2154.626378703775
 20
1105.514038673663
 30
0.0
 41
1.0
 10
2154.619342260577
 20
1105.311153088535
 30
0.0
 41
1.0
 10
2154.615045278246
 20
1105.187255865203
 30
0.0
 41
0.9999990251576337
 10
2154.61098404285
 20
1105.057412304
 30
0.0
 41
0.9999990251576337
 10
2154.605582891774
 20
1104.933558302961
 30
0.0
 41
1.0
  0
SPLINE
  5
136
330
1F
100
AcDbEntity
  8
Miura_Table_9590-51_2D
100
AcDbSpline
210
0.0
220
0.0
230
1.0
 70
    12
 71
     2
 72
     6
 73
     3
 74
     0
 42
0.0000000001
 43
0.0000000001
 40
-0.8893486808566594
 40
-0.8893486808566594
 40
-0.8893486808566594
 40
0.0
 40
0.0
 40
0.0
 10
2154.605582891774
 20
1104.933558302961
 30
0.0
 41
1.0
 10
2154.581311587363
 20
1104.376992097006
 30
0.0
 41
0.9999953443438412
 10
2154.561375298545
 20
1103.93276350621
 30
0.0
 41
1.0
  0
SPLINE
  5
137
330
1F
100
AcDbEntity
  8
Miura_Table_9590-51_2D
100
AcDbSpline
210
0.0
220
0.0
230
1.0
 70
     8
 71
     3
 72
    16
 73
    12
 74
     0
 42
0.0000000001
 43
0.0000000001
 40
-44.0809111380504
 40
-44.0809111380504
 40
-44.0809111380504
 40
-44.0809111380504
 40
-41.32262018863005
 40
-38.57568005800471
 40
-32.83955618066763
 40
-27.18774927002762
 40
-21.55559266881473
 40
-10.57964571019579
 40
-5.268782545111494
 40
-2.760660175474777
 40
0.0
 40
0.0
 40
0.0
 40
0.0
 10
2154.561375298545
 20
1103.93276350621
 30
0.0
 10
2154.520155039254
 20
1103.014276727395
 30
0.0
 10
2154.410869351804
 20
1101.182175182887
 30
0.0
 10
2154.058773949511
 20
1097.451123722525
 30
0.0
 10
2153.401415798145
 20
1092.783453402306
 30
0.0
 10
2152.268478661847
 20
1087.221451373226
 30
0.0
 10
2150.338379745173
 20
1080.053538796277
 30
0.0
 10
2147.782101819802
 20
1073.192785843826
 30
0.0
 10
2145.015091501274
 20
1067.56740531611
 30
0.0
 10
2143.294826845778
 20
1064.488463471211
 30
0.0
 10
2142.361771067984
 20
1062.966522235822
 30
0.0
 10
2141.877984884199
 20
1062.183903332511
 30
0.0
  0
SPLINE
  5
138
330
1F
100
AcDbEntity
  8
Miura_Table_9590-51_2D
100
AcDbSpline
210
0.0
220
0.0
230
1.0
 70
     8
 71
     3
 72
    18
 73
    14
 74
     0
 42
0.0000000001
 43
0.0000000001
 40
-23.989786789493
 40
-23.989786789493
 40
-23.989786789493
 40
-23.989786789493
 40
-22.58263901442267
 40
-21.34373030388689
 40
-18.62944873608983
 40
-13.20000755298573
 40
-11.39409917538949
 40
-8.514888277655798
 40
-6.682465050476555
 40
-5.425659454196719
 40
-3.282334438373458
 40
-1.290606615411304
 40
0.0
 40
0.0
 40
0.0
 40
0.0
 10
2141.877984884199
 20
1062.183903332511
 30
0.0
 10
2141.631356080193
 20
1061.784932939007
 30
0.0
 10
2141.166123143735
 20
1061.035560617538
 30
0.0
 10
2140.199744469404
 20
1059.53260341574
 30
0.0
 10
2138.454352401202
 20
1056.937052406014
 30
0.0
 10
2136.493811595806
 20
1054.260556704212
 30
0.0
 10
2134.406428816664
 20
1051.612757960446
 30
0.0
 10
2133.020347598934
 20
1049.939571256639
 30
0.0
 10
2131.725761266412
 20
1048.428940534602
 30
0.0
 10
2130.58067069866
 20
1047.113248135549
 30
0.0
 10
2129.399897485332
 20
1045.758281892095
 30
0.0
 10
2128.217268249117
 20
1044.389948440818
 30
0.0
 10
2127.487136837728
 20
1043.545355920221
 30
0.0
 10
2127.205500835556
 20
1043.220150676683
 30
0.0
  0
SPLINE
  5
139
330
1F
100
AcDbEntity
  8
Miura_Table_9590-51_2D
100
AcDbSpline
210
0.0
220
0.0
230
1.0
 70
    24
 71
     2
 72
     6
 73
     3
 74
     0
 42
0.0000000001
 43
0.0000000001
 40
-405.407916564433
 40
-405.407916564433
 40
-405.407916564433
 40
0.0
 40
0.0
 40
0.0
 10
2127.205500835557
 20
1043.220150676683
 30
0.0
 10
1994.504610526495
 20
889.9903610975653
 30
0.0
 10
1861.803720217433
 20
736.7605715184473
 30
0.0
  0
POLYLINE
  5
13A
330
1F
100
AcDbEntity
  8
Miura_Table_9590-51_2D
100
AcDb2dPolyline
 66
     1
 10
0.0
 20
0.0
 30
0.0
  0
VERTEX
  5
13B
330
13A
100
AcDbEntity
  8
Miura_Table_9590-51_2D
100
AcDbVertex
100
AcDb2dVertex
 10
1861.803720217433
 20
736.7605715184473
 30
0.0
  0
VERTEX
  5
13C
330
13A
100
AcDbEntity
  8
Miura_Table_9590-51_2D
100
AcDbVertex
100
AcDb2dVertex
 10
1906.472154329496
 20
736.7608952511366
 30
0.0
  0
SEQEND
  5
13D
330
13A
100
AcDbEntity
  8
Miura_Table_9590-51_2D
  0
SPLINE
  5
13E
330
1F
100
AcDbEntity
  8
Miura_Table_9590-51_2D
100
AcDbSpline
210
0.0
220
0.0
230
1.0
 70
    24
 71
     2
 72
     6
 73
     3
 74
     0
 42
0.0000000001
 43
0.0000000001
 40
-379.0828237665147
 40
-379.0828237665147
 40
-379.0828237665147
 40
0.0
 40
0.0
 40
0.0
 10
1906.472154329496
 20
736.7608952511366
 30
0.0
 10
2030.556135325696
 20
880.0407350013031
 30
0.0
 10
2154.640116321896
 20
1023.32057475147
 30
0.0
  0
SPLINE
  5
13F
330
1F
100
AcDbEntity
  8
Miura_Table_9590-51_2D
100
AcDbSpline
210
0.0
220
0.0
230
1.0
 70
     8
 71
     3
 72
    13
 73
     9
 74
     0
 42
0.0000000001
 43
0.0000000001
 40
0.0
 40
0.0
 40
0.0
 40
0.0
 40
0.0902184704601651
 40
0.1761896442498796
 40
0.3455632779639898
 40
0.4948657560424342
 40
0.556563220459395
 40
0.6273565859503734
 40
0.6273565859503734
 40
0.6273565859503734
 40
0.6273565859503734
 10
2204.328971021621
 20
736.7608324541777
 30
0.0
 10
2204.359048706599
 20
736.7597759289588
 30
0.0
 10
2204.417615553964
 20
736.7546122497122
 30
0.0
 10
2204.529723976379
 20
736.7256945023992
 30
0.0
 10
2204.649876465901
 20
736.6614634884816
 30
0.0
 10
2204.737539328527
 20
736.56598087677
 30
0.0
 10
2204.76939060339
 20
736.4760510204139
 30
0.0
 10
2204.77014732811
 20
736.4315607434853
 30
0.0
 10
2204.770136249478
 20
736.4079989011461
 30
0.0
  0
SPLINE
  5
140
330
1F
100
AcDbEntity
  8
Miura_Table_9590-51_2D
100
AcDbSpline
210
0.0
220
0.0
230
1.0
 70
    24
 71
     2
 72
     6
 73
     3
 74
     0
 42
0.0000000001
 43
0.0000000001
 40
0.0
 40
0.0
 40
0.0
 40
0.3964465280210447
 40
0.3964465280210447
 40
0.3964465280210447
 10
2204.770136249478
 20
736.4079989011461
 30
0.0
 10
2204.770122866379
 20
736.2097756372244
 30
0.0
 10
2204.770109483279
 20
736.0115523733027
 30
0.0
  0
SPLINE
  5
141
330
1F
100
AcDbEntity
  8
Miura_Table_9590-51_2D
100
AcDbSpline
210
0.0
220
0.0
230
1.0
 70
     8
 71
     3
 72
    17
 73
    13
 74
     0
 42
0.0000000001
 43
0.0000000001
 40
0.0
 40
0.0
 40
0.0
 40
0.0
 40
0.0962064271533508
 40
0.1738289297854392
 40
0.3373064891879649
 40
0.5367070411386231
 40
0.7755987407383972
 40
1.076140845210532
 40
1.396849041230197
 40
1.692620935227627
 40
1.823404523223936
 40
1.966221085738845
 40
1.966221085738845
 40
1.966221085738845
 40
1.966221085738845
 10
2204.770109483279
 20
736.0115523733027
 30
0.0
 10
2204.770193169206
 20
735.9794697481532
 30
0.0
 10
2204.769753656443
 20
735.921534062785
 30
0.0
 10
2204.757052382272
 20
735.809527292108
 30
0.0
 10
2204.714036557772
 20
735.6682705880689
 30
0.0
 10
2204.620157872313
 20
735.4902852548369
 30
0.0
 10
2204.477899114444
 20
735.2888623798306
 30
0.0
 10
2204.290061722751
 20
735.0718316542266
 30
0.0
 10
2204.0720400617
 20
734.857304109697
 30
0.0
 10
2203.881365029884
 20
734.6966631976175
 30
0.0
 10
2203.727341169589
 20
734.5856179300042
 30
0.0
 10
2203.650325103639
 20
734.5367178968017
 30
0.0
 10
2203.609901168794
 20
734.5115395036473
 30
0.0
  0
SPLINE
  5
142
330
1F
100
AcDbEntity
  8
Miura_Table_9590-51_2D
100
AcDbSpline
210
0.0
220
0.0
230
1.0
 70
    24
 71
     2
 72
     6
 73
     3
 74
     0
 42
0.0000000001
 43
0.0000000001
 40
0.0
 40
0.0
 40
0.0
 40
0.0002028258160686
 40
0.0002028258160686
 40
0.0002028258160686
 10
2203.609901168794
 20
734.5115395036473
 30
0.0
 10
2203.609572116575
 20
734.5113330688008
 30
0.0
 10
2203.609243064356
 20
734.5111266339543
 30
0.0
  0
SPLINE
  5
143
330
1F
100
AcDbEntity
  8
Miura_Table_9590-51_2D
100
AcDbSpline
210
0.0
220
0.0
230
1.0
 70
     8
 71
     3
 72
    25
 73
    21
 74
     0
 42
0.0000000001
 43
0.0000000001
 40
0.0
 40
0.0
 40
0.0
 40
0.0
 40
3.199587773031225
 40
6.339228569859388
 40
12.50824278581488
 40
18.76926702610335
 40
21.92722116738235
 40
23.54279560344114
 40
24.35060102343449
 40
24.73612324148421
 40
24.93803802146848
 40
25.02982611215962
 40
25.08490533980845
 40
25.10555096506041
 40
25.11462558692914
 40
25.12056925615265
 40
25.12388541331136
 40
25.12423612731493
 40
25.12438763465248
 40
25.12589178241075
 40
25.12589178241075
 40
25.12589178241075
 40
25.12589178241075
 10
2203.609243064356
 20
734.5111266339543
 30
0.0
 10
2202.704278830106
 20
733.9457129444531
 30
0.0
 10
2200.872323671244
 20
732.8900227714905
 30
0.0
 10
2197.120724848839
 20
731.0650728955659
 30
0.0
 10
2192.232471797052
 20
729.2855842322476
 30
0.0
 10
2187.139196493917
 20
728.1957354017286
 30
0.0
 10
2183.479447587432
 20
727.806245278525
 30
0.0
 10
2181.621398068128
 20
727.7068768047063
 30
0.0
 10
2180.685381091299
 20
727.6823201084544
 30
0.0
 10
2180.220346209107
 20
727.6762258902115
 30
0.0
 10
2179.993941650778
 20
727.6747857089626
 30
0.0
 10
2179.877684076916
 20
727.6744085996802
 30
0.0
 10
2179.821846453548
 20
727.6743283228
 30
0.0
 10
2179.793580527273
 20
727.6743075702607
 30
0.0
 10
2179.781692587614
 20
727.6743041601922
 30
0.0
 10
2179.775622548555
 20
727.6743029033762
 30
0.0
 10
2179.772244742834
 20
727.6743028440351
 30
0.0
 10
2179.771617717686
 20
727.6743026839897
 30
0.0
 10
2179.77160718094
 20
727.6743027685866
 30
0.0
 10
2179.770844083029
 20
727.6743027492116
 30
0.0
 10
2179.770355746552
 20
727.6743027516802
 30
0.0
  0
SPLINE
  5
144
330
1F
100
AcDbEntity
  8
Miura_Table_9590-51_2D
100
AcDbSpline
210
0.0
220
0.0
230
1.0
 70
     8
 71
     3
 72
    24
 73
    20
 74
     0
 42
0.0000000001
 43
0.0000000001
 40
0.0
 40
0.0
 40
0.0
 40
0.0
 40
0.0020036010011362
 40
0.0022547111983818
 40
0.0025058213949665
 40
0.0056257993940696
 40
0.01124053246391
 40
0.0196887687649597
 40
0.0391810618565542
 40
0.0782064054598164
 40
0.188361477556041
 40
0.3719392572807771
 40
0.7758219389144186
 40
1.546888493465523
 40
3.125770128968859
 40
6.302017912663969
 40
12.52633999462964
 40
18.76876323914056
 40
25.12624730574042
 40
25.12624730574042
 40
25.12624730574042
 40
25.12624730574042
 10
2179.770355746552
 20
727.6743027516802
 30
0.0
 10
2179.769685781615
 20
727.6743027492687
 30
0.0
 10
2179.768735704335
 20
727.6743027771104
 30
0.0
 10
2179.768563143731
 20
727.6743026864876
 30
0.0
 10
2179.768365741234
 20
727.6743028105293
 30
0.0
 10
2179.764512410781
 20
727.6743029760994
 30
0.0
 10
2179.759381870947
 20
727.6743038132008
 30
0.0
 10
2179.747735213694
 20
727.674307539271
 30
0.0
 10
2179.725963232704
 20
727.6743214803062
 30
0.0
 10
2179.669238497037
 20
727.6743939536282
 30
0.0
 10
2179.558620914851
 20
727.674721665303
 30
0.0
 10
2179.325931686185
 20
727.6761730050985
 30
0.0
 10
2178.873209524219
 20
727.681973161071
 30
0.0
 10
2177.955504020239
 20
727.7057649940828
 30
0.0
 10
2176.115714012099
 20
727.8017761723254
 30
0.0
 10
2172.473675854088
 20
728.1842996409853
 30
0.0
 10
2167.360748042368
 20
729.2694020371134
 30
0.0
 10
2161.447799677103
 20
731.4139488681376
 30
0.0
 10
2157.728863939811
 20
733.388103015569
 30
0.0
 10
2155.930940107443
 20
734.5111606330859
 30
0.0
  0
SPLINE
  5
145
330
1F
100
AcDbEntity
  8
Miura_Table_9590-51_2D
100
AcDbSpline
210
0.0
220
0.0
230
1.0
 70
     8
 71
     3
 72
    17
 73
    13
 74
     0
 42
0.0000000001
 43
0.0000000001
 40
0.0
 40
0.0
 40
0.0
 40
0.0
 40
0.1433371388019667
 40
0.27412170485795
 40
0.5698915548390706
 40
0.891163767339524
 40
1.191151497005545
 40
1.428512647803955
 40
1.62846324815081
 40
1.792814010234205
 40
1.870845827558682
 40
1.966221106772676
 40
1.966221106772676
 40
1.966221106772676
 40
1.966221106772676
 10
2155.930940107443
 20
734.5111606330859
 30
0.0
 10
2155.88976155078
 20
734.5368078344557
 30
0.0
 10
2155.81260447048
 20
734.5858111689106
 30
0.0
 10
2155.658460772825
 20
734.6969853588398
 30
0.0
 10
2155.467668450135
 20
734.8577789586031
 30
0.0
 10
2155.249683536546
 20
735.072347239864
 30
0.0
 10
2155.062226400549
 20
735.2890391753031
 30
0.0
 10
2154.92026677901
 20
735.4900371159843
 30
0.0
 10
2154.826302027295
 20
735.667940803384
 30
0.0
 10
2154.783066303643
 20
735.8097732106519
 30
0.0
 10
2154.770483181032
 20
735.9219583253685
 30
0.0
 10
2154.770024489212
 20
735.9797355043688
 30
0.0
 10
2154.770125480019
 20
736.0115523733027
 30
0.0
  0
SPLINE
  5
146
330
1F
100
AcDbEntity
  8
Miura_Table_9590-51_2D
100
AcDbSpline
210
0.0
220
0.0
230
1.0
 70
    24
 71
     2
 72
     6
 73
     3
 74
     0
 42
0.0000000001
 43
0.0000000001
 40
0.0
 40
0.0
 40
0.0
 40
0.3964465280210447
 40
0.3964465280210447
 40
0.3964465280210447
 10
2154.770125480019
 20
736.0115523733027
 30
0.0
 10
2154.77011209692
 20
736.2097756372244
 30
0.0
 10
2154.770098713821
 20
736.4079989011461
 30
0.0
  0
SPLINE
  5
147
330
1F
100
AcDbEntity
  8
Miura_Table_9590-51_2D
100
AcDbSpline
210
0.0
220
0.0
230
1.0
 70
     8
 71
     3
 72
    12
 73
     8
 74
     0
 42
0.0000000001
 43
0.0000000001
 40
0.0
 40
0.0
 40
0.0
 40
0.0
 40
0.0709674213457879
 40
0.1335862693815868
 40
0.2813937667583465
 40
0.4525062216949927
 40
0.6273569207154127
 40
0.6273569207154127
 40
0.6273569207154127
 40
0.6273569207154127
 10
2154.770098713821
 20
736.4079989011461
 30
0.0
 10
2154.769989381967
 20
736.4316176431244
 30
0.0
 10
2154.770972638753
 20
736.4764736155407
 30
0.0
 10
2154.80288183448
 20
736.5662532192125
 30
0.0
 10
2154.890836407298
 20
736.6617059818677
 30
0.0
 10
2155.037699653205
 20
736.7404130943523
 30
0.0
 10
2155.153091155793
 20
736.7593469390895
 30
0.0
 10
2155.211264251376
 20
736.760825972086
 30
0.0
  0
SPLINE
  5
148
330
1F
100
AcDbEntity
  8
Miura_Table_9590-51_2D
100
AcDbSpline
210
0.0
220
0.0
230
1.0
 70
    12
 71
     3
 72
    12
 73
     8
 74
     0
 42
0.0000000001
 43
0.0000000001
 40
-0.5262507170806857
 40
-0.5262507170806857
 40
-0.5262507170806857
 40
-0.5262507170806857
 40
-0.5145170103963779
 40
-0.5145170103963779
 40
-0.2542829628112115
 40
-0.2542829628112115
 40
-0.0317448945959232
 40
-0.0317448945959232
 40
-0.0317448945959232
 40
-0.0317448945959232
 10
2200.89687663689
 20
1104.211803801938
 30
0.0
 41
1.0
 10
2200.89935331486
 20
1104.216240539904
 30
0.0
 41
1.0
 10
2200.90184465228
 20
1104.220609476445
 30
0.0
 41
1.0
 10
2200.959903509619
 20
1104.320257467539
 30
0.0
 41
1.0
 10
2201.019017578439
 20
1104.380385927735
 30
0.0
 41
1.0
 10
2201.122573819353
 20
1104.44820462226
 30
0.0
 41
1.0
 10
2201.168175039535
 20
1104.462680438887
 30
0.0
 41
1.0
 10
2201.211695972838
 20
1104.465809095335
 30
0.0
 41
1.0
  0
SPLINE
  5
149
330
1F
100
AcDbEntity
  8
Miura_Table_9590-51_2D
100
AcDbSpline
210
0.0
220
0.0
230
1.0
 70
    12
 71
     3
 72
    18
 73
    14
 74
     0
 42
0.0000000001
 43
0.0000000001
 40
-17.08061118246446
 40
-17.08061118246446
 40
-17.08061118246446
 40
-17.08061118246446
 40
-15.57895392647034
 40
-15.57895392647034
 40
-15.57895392647034
 40
-11.24807156559795
 40
-11.24807156559795
 40
-11.24807156559795
 40
-8.873594413233326
 40
-6.279800604855796
 40
-3.187801552011507
 40
-1.394045745757029
 40
0.0
 40
0.0
 40
0.0
 40
0.0
 10
2200.26391798862
 20
1104.46589747192
 30
0.0
 41
1.0
 10
2200.817767127241
 20
1104.44721003455
 30
0.0
 41
0.8207490813200228
 10
2201.209954297943
 20
1104.055524626636
 30
0.0
 41
0.8207490813200228
 10
2201.22957976879
 20
1103.501471155786
 30
0.0
 41
1.0
 10
2201.280995189714
 20
1102.058432867756
 30
0.0
 41
0.9999156577956789
 10
2201.35536992253
 20
1100.616312728691
 30
0.0
 41
0.9999156577956789
 10
2201.452685148452
 20
1099.175475633365
 30
0.0
 41
1.0
 10
2201.505927091223
 20
1098.385127498741
 30
0.0
 41
1.0
 10
2201.630001896348
 20
1096.733643729753
 30
0.0
 41
1.0
 10
2201.870113190028
 20
1094.057579745481
 30
0.0
 41
1.0
 10
2202.121153137205
 20
1091.577039745975
 30
0.0
 41
1.0
 10
2202.345134649375
 20
1089.49578689144
 30
0.0
 41
1.0
 10
2202.463356650482
 20
1088.437646017108
 30
0.0
 41
1.0
 10
2202.517124451399
 20
1087.976083113871
 30
0.0
 41
1.0
  0
SPLINE
  5
14A
330
1F
100
AcDbEntity
  8
Miura_Table_9590-51_2D
100
AcDbSpline
210
0.0
220
0.0
230
1.0
 70
     8
 71
     3
 72
    16
 73
    12
 74
     0
 42
0.0000000001
 43
0.0000000001
 40
-33.3642801434906
 40
-33.3642801434906
 40
-33.3642801434906
 40
-33.3642801434906
 40
-24.17426881783292
 40
-19.70973193739507
 40
-17.41415730793448
 40
-12.69286067967022
 40
-10.39643749466709
 40
-6.695123544693319
 40
-3.023047667395003
 40
-1.441026840298903
 40
0.0
 40
0.0
 40
0.0
 40
0.0
 10
2202.517124451398
 20
1087.976083113871
 30
0.0
 10
2202.871583659261
 20
1084.933272765042
 30
0.0
 10
2203.4807067835
 20
1080.422227868916
 30
0.0
 10
2204.284825526439
 20
1075.16667541404
 30
0.0
 10
2204.882335071643
 20
1071.386446340452
 30
0.0
 10
2205.376122238794
 20
1068.32155526696
 30
0.0
 10
2205.931549820734
 20
1064.791948191084
 30
0.0
 10
2206.40945329929
 20
1061.604276539041
 30
0.0
 10
2206.79398769286
 20
1058.643703745798
 30
0.0
 10
2207.020999141969
 20
1056.423413315923
 30
0.0
 10
2207.101639176485
 20
1055.418916792621
 30
0.0
 10
2207.133976888407
 20
1054.93944021105
 30
0.0
  0
SPLINE
  5
14B
330
1F
100
AcDbEntity
  8
Miura_Table_9590-51_2D
100
AcDbSpline
210
0.0
220
0.0
230
1.0
 70
     8
 71
     3
 72
    12
 73
     8
 74
     0
 42
0.0000000001
 43
0.0000000001
 40
-2.866008512548971
 40
-2.866008512548971
 40
-2.866008512548971
 40
-2.866008512548971
 40
-2.1803500891602
 40
-1.316467333291305
 40
-0.6436630852735566
 40
-0.3236325452860642
 40
0.0
 40
0.0
 40
0.0
 40
0.0
 10
2207.133976888407
 20
1054.93944021105
 30
0.0
 10
2207.149515532882
 20
1054.711192896793
 30
0.0
 10
2207.177114910196
 20
1054.195410314586
 30
0.0
 10
2207.208860819204
 20
1053.455291217569
 30
0.0
 10
2207.226270806705
 20
1052.836612292521
 30
0.0
 10
2207.232112694048
 20
1052.397817796692
 30
0.0
 10
2207.233337570076
 20
1052.183270387047
 30
0.0
 10
2207.233339762978
 20
1052.075380033514
 30
0.0
  0
SPLINE
  5
14C
330
1F
100
AcDbEntity
  8
Miura_Table_9590-51_2D
100
AcDbSpline
210
0.0
220
0.0
230
1.0
 70
     8
 71
     3
 72
    13
 73
     9
 74
     0
 42
0.0000000001
 43
0.0000000001
 40
-8.067492795701002
 40
-8.067492795701002
 40
-8.067492795701002
 40
-8.067492795701002
 40
-6.929436622567084
 40
-5.933962300934526
 40
-4.0143213514352
 40
-2.037649979843423
 40
-1.015652899145925
 40
0.0
 40
0.0
 40
0.0
 40
0.0
 10
2207.233339762978
 20
1052.075380033514
 30
0.0
 10
2207.23399305702
 20
1051.696037052448
 30
0.0
 10
2207.220305475838
 20
1050.984659440858
 30
0.0
 10
2207.101679827316
 20
1049.637878771089
 30
0.0
 10
2206.756904433344
 20
1048.037985857173
 30
0.0
 10
2206.134485554996
 20
1046.514478138752
 30
0.0
 10
2205.479390129931
 20
1045.346858911683
 30
0.0
 10
2205.099353778932
 20
1044.782929317834
 30
0.0
 10
2204.899217435503
 20
1044.509986015373
 30
0.0
  0
SPLINE
  5
14D
330
1F
100
AcDbEntity
  8
Miura_Table_9590-51_2D
100
AcDbSpline
210
0.0
220
0.0
230
1.0
 70
     8
 71
     3
 72
    13
 73
     9
 74
     0
 42
0.0000000001
 43
0.0000000001
 40
0.0
 40
0.0
 40
0.0
 40
0.0
 40
0.0787536068012881
 40
0.1449423458634473
 40
0.266120321626831
 40
0.3853723078620238
 40
0.4472243187928732
 40
0.5284135023430945
 40
0.5284135023430945
 40
0.5284135023430945
 40
0.5284135023430945
 10
2453.548205092608
 20
736.7611716484248
 30
0.0
 10
2453.522016443269
 20
736.7606083892861
 30
0.0
 10
2453.473496608557
 20
736.7561153689901
 30
0.0
 10
2453.388865724277
 20
736.7285589514192
 30
0.0
 10
2453.311666841508
 20
736.6516036317396
 30
0.0
 10
2453.306790082183
 20
736.5441344084463
 30
0.0
 10
2453.346071178416
 20
736.4650980361255
 30
0.0
 10
2453.376615996514
 20
736.4282770231232
 30
0.0
 10
2453.394549977465
 20
736.4079853519816
 30
0.0
  0
SPLINE
  5
14E
330
1F
100
AcDbEntity
  8
Miura_Table_9590-51_2D
100
AcDbSpline
210
0.0
220
0.0
230
1.0
 70
    24
 71
     2
 72
     6
 73
     3
 74
     0
 42
0.0000000001
 43
0.0000000001
 40
0.0
 40
0.0
 40
0.0
 40
0.524413613475097
 40
0.524413613475097
 40
0.524413613475097
 10
2453.394549977465
 20
736.4079853519816
 30
0.0
 10
2453.566304438627
 20
736.2096604770276
 30
0.0
 10
2453.738058899788
 20
736.0113356020736
 30
0.0
  0
SPLINE
  5
14F
330
1F
100
AcDbEntity
  8
Miura_Table_9590-51_2D
100
AcDbSpline
210
0.0
220
0.0
230
1.0
 70
     8
 71
     3
 72
    12
 73
     8
 74
     0
 42
0.0000000001
 43
0.0000000001
 40
0.0
 40
0.0
 40
0.0
 40
0.0
 40
0.2152508561583033
 40
0.4345163837059823
 40
1.014949707012151
 40
1.738429140534348
 40
2.240363334908873
 40
2.240363334908873
 40
2.240363334908873
 40
2.240363334908873
 10
2453.738058899788
 20
736.0113356020736
 30
0.0
 10
2453.785098039841
 20
735.9567868676686
 30
0.0
 10
2453.880936365617
 20
735.8481308547914
 30
0.0
 10
2454.117292653138
 20
735.6059468701633
 30
0.0
 10
2454.489298181032
 20
735.2601966242464
 30
0.0
 10
2454.943099789169
 20
734.8646913635971
 30
0.0
 10
2455.261311759803
 20
734.6082898292361
 30
0.0
 10
2455.397952209684
 20
734.51152842593
 30
0.0
  0
SPLINE
  5
150
330
1F
100
AcDbEntity
  8
Miura_Table_9590-51_2D
100
AcDbSpline
210
0.0
220
0.0
230
1.0
 70
     8
 71
     3
 72
    12
 73
     8
 74
     0
 42
0.0000000001
 43
0.0000000001
 40
0.0
 40
0.0
 40
0.0
 40
0.0
 40
2.849423647238892
 40
5.573258475154479
 40
11.17057419198277
 40
16.6544972940824
 40
22.23406149512204
 40
22.23406149512204
 40
22.23406149512204
 40
22.23406149512204
 10
2455.397952209684
 20
734.51152842593
 30
0.0
 10
2456.170182977463
 20
733.9584406699785
 30
0.0
 10
2457.722644945475
 20
732.9355748006355
 30
0.0
 10
2460.979078890488
 20
731.1247842009034
 30
0.0
 10
2465.241404626302
 20
729.3544568407647
 30
0.0
 10
2470.65005369563
 20
728.0256255236986
 30
0.0
 10
2474.33429466064
 20
727.6984116620263
 30
0.0
 10
2476.194014242556
 20
727.6766895913638
 30
0.0
  0
SPLINE
  5
151
330
1F
100
AcDbEntity
  8
Miura_Table_9590-51_2D
100
AcDbSpline
210
0.0
220
0.0
230
1.0
 70
     8
 71
     5
 72
    12
 73
     6
 74
     0
 42
0.0000000001
 43
0.0000000001
 40
-1.0
 40
-1.0
 40
-1.0
 40
-1.0
 40
-1.0
 40
-1.0
 40
0.0
 40
0.0
 40
0.0
 40
0.0
 40
0.0
 40
0.0
 10
2476.194014242556
 20
727.6766895913638
 30
0.0
 10
2476.276784466657
 20
727.6757228108479
 30
0.0
 10
2476.359557453686
 20
727.6749925764805
 30
0.0
 10
2476.442334984428
 20
727.6745522090166
 30
0.0
 10
2476.525110840381
 20
727.6743075678305
 30
0.0
 10
2476.607886710289
 20
727.6743027510499
 30
0.0
  0
SPLINE
  5
152
330
1F
100
AcDbEntity
  8
Miura_Table_9590-51_2D
100
AcDbSpline
210
0.0
220
0.0
230
1.0
 70
     8
 71
     3
 72
    12
 73
     8
 74
     0
 42
0.0000000001
 43
0.0000000001
 40
0.0
 40
0.0
 40
0.0
 40
0.0
 40
2.782398956976484
 40
5.60255636646087
 40
11.31396921066574
 40
16.96595331393149
 40
22.64829073387322
 40
22.64829073387322
 40
22.64829073387322
 40
22.64829073387322
 10
2476.607886710289
 20
727.6743027510499
 30
0.0
 10
2477.535358876744
 20
727.6742487808535
 30
0.0
 10
2479.40284078589
 20
727.7468905670037
 30
0.0
 10
2483.151732253916
 20
728.1826078470745
 30
0.0
 10
2487.765906955507
 20
729.2788570127932
 30
0.0
 10
2493.037127651961
 20
731.4452777304025
 30
0.0
 10
2496.277913277304
 20
733.4091869519041
 30
0.0
 10
2497.818181636993
 20
734.5115865299083
 30
0.0
  0
SPLINE
  5
153
330
1F
100
AcDbEntity
  8
Miura_Table_9590-51_2D
100
AcDbSpline
210
0.0
220
0.0
230
1.0
 70
     8
 71
     3
 72
    16
 73
    12
 74
     0
 42
0.0000000001
 43
0.0000000001
 40
0.0
 40
0.0
 40
0.0
 40
0.0
 40
0.1449268675943032
 40
0.2673386247060249
 40
0.5163843678365243
 40
0.7646474073394522
 40
0.9969847930951103
 40
1.194773719318494
 40
1.376962800151374
 40
1.556234553971886
 40
1.789638013214852
 40
1.789638013214852
 40
1.789638013214852
 40
1.789638013214852
 10
2497.818181636993
 20
734.5115865299083
 30
0.0
 10
2497.857556397517
 20
734.5396782401776
 30
0.0
 10
2497.929667121522
 20
734.5921167817205
 30
0.0
 10
2498.060238668013
 20
734.704538173886
 30
0.0
 10
2498.19862860665
 20
734.8588915344744
 30
0.0
 10
2498.328488854197
 20
735.0656515694939
 30
0.0
 10
2498.410628287834
 20
735.2776999572234
 30
0.0
 10
2498.437612904208
 20
735.4817847723934
 30
0.0
 10
2498.408244096232
 20
735.6681052690246
 30
0.0
 10
2498.319709546721
 20
735.8476685157327
 30
0.0
 10
2498.229943781631
 20
735.9528009813394
 30
0.0
 10
2498.178916260234
 20
736.0115078286065
 30
0.0
  0
SPLINE
  5
154
330
1F
100
AcDbEntity
  8
Miura_Table_9590-51_2D
100
AcDbSpline
210
0.0
220
0.0
230
1.0
 70
    24
 71
     2
 72
     6
 73
     3
 74
     0
 42
0.0000000001
 43
0.0000000001
 40
0.0
 40
0.0
 40
0.0
 40
0.5244495011186676
 40
0.5244495011186676
 40
0.5244495011186676
 10
2498.178916260234
 20
736.0115078286065
 30
0.0
 10
2498.007167894569
 20
736.2098265089254
 30
0.0
 10
2497.835419528904
 20
736.4081451892444
 30
0.0
  0
SPLINE
  5
155
330
1F
100
AcDbEntity
  8
Miura_Table_9590-51_2D
100
AcDbSpline
210
0.0
220
0.0
230
1.0
 70
     8
 71
     3
 72
    12
 73
     8
 74
     0
 42
0.0000000001
 43
0.0000000001
 40
0.0
 40
0.0
 40
0.0
 40
0.0
 40
0.089002379783791
 40
0.1797960093880787
 40
0.4111935266141908
 40
0.6556287843907624
 40
0.8529822444616082
 40
0.8529822444616082
 40
0.8529822444616082
 40
0.8529822444616082
 10
2497.835419528904
 20
736.4081451892444
 30
0.0
 10
2497.81610756707
 20
736.4308729940983
 30
0.0
 10
2497.775313889815
 20
736.4750010540865
 30
0.0
 10
2497.666637248616
 20
736.5592535715889
 30
0.0
 10
2497.500116066582
 20
736.6495107501992
 30
0.0
 10
2497.290609085058
 20
736.7313110992031
 30
0.0
 10
2497.145089723153
 20
736.7591599476868
 30
0.0
 10
2497.07919947418
 20
736.7609436789573
 30
0.0
  0
SPLINE
  5
156
330
1F
100
AcDbEntity
  8
Miura_Table_9590-51_2D
100
AcDbSpline
210
0.0
220
0.0
230
1.0
 70
    12
 71
     3
 72
    15
 73
    11
 74
     0
 42
0.0000000001
 43
0.0000000001
 40
-2.500401592028198
 40
-2.500401592028198
 40
-2.500401592028198
 40
-2.500401592028198
 40
-2.092447594524908
 40
-1.587472916212024
 40
-0.9787609925742227
 40
-0.6090244151814629
 40
0.0
 40
0.0
 40
0.0
 40
0.3719149623461165
 40
0.3719149623461165
 40
0.3719149623461165
 40
0.3719149623461165
 10
2204.769543816191
 20
1107.810497893025
 30
0.0
 41
1.0
 10
2204.78884620918
 20
1107.675882661734
 30
0.0
 41
1.0
 10
2204.822597789608
 20
1107.373368955858
 30
0.0
 41
1.0
 10
2204.858648534154
 20
1106.867373870798
 30
0.0
 41
1.0
 10
2204.881739797341
 20
1106.37342281804
 30
0.0
 41
1.0
 10
2204.90181194918
 20
1105.844646550358
 30
0.0
 41
1.0
 10
2204.912956222386
 20
1105.514038673663
 30
0.0
 41
1.0
 10
2204.919992665585
 20
1105.311153088535
 30
0.0
 41
1.0
 10
2204.924289647915
 20
1105.187255865203
 30
0.0
 41
0.9999990251576337
 10
2204.928350883311
 20
1105.057412304
 30
0.0
 41
0.9999990251576337
 10
2204.933752034387
 20
1104.933558302961
 30
0.0
 41
1.0
  0
SPLINE
  5
157
330
1F
100
AcDbEntity
  8
Miura_Table_9590-51_2D
100
AcDbSpline
210
0.0
220
0.0
230
1.0
 70
    12
 71
     2
 72
     6
 73
     3
 74
     0
 42
0.0000000001
 43
0.0000000001
 40
-0.8893486808566594
 40
-0.8893486808566594
 40
-0.8893486808566594
 40
0.0
 40
0.0
 40
0.0
 10
2204.933752034387
 20
1104.933558302961
 30
0.0
 41
1.0
 10
2204.958023338798
 20
1104.376992097006
 30
0.0
 41
0.9999953443438412
 10
2204.977959627616
 20
1103.93276350621
 30
0.0
 41
1.0
  0
SPLINE
  5
158
330
1F
100
AcDbEntity
  8
Miura_Table_9590-51_2D
100
AcDbSpline
210
0.0
220
0.0
230
1.0
 70
     8
 71
     3
 72
    16
 73
    12
 74
     0
 42
0.0000000001
 43
0.0000000001
 40
-44.0809111380504
 40
-44.0809111380504
 40
-44.0809111380504
 40
-44.0809111380504
 40
-41.32262018863005
 40
-38.57568005800471
 40
-32.83955618066763
 40
-27.18774927002762
 40
-21.55559266881473
 40
-10.57964571019579
 40
-5.268782545111494
 40
-2.760660175474777
 40
0.0
 40
0.0
 40
0.0
 40
0.0
 10
2204.977959627616
 20
1103.93276350621
 30
0.0
 10
2205.019179886907
 20
1103.014276727395
 30
0.0
 10
2205.128465574358
 20
1101.182175182887
 30
0.0
 10
2205.48056097665
 20
1097.451123722525
 30
0.0
 10
2206.137919128017
 20
1092.783453402306
 30
0.0
 10
2207.270856264314
 20
1087.221451373226
 30
0.0
 10
2209.200955180988
 20
1080.053538796277
 30
0.0
 10
2211.757233106359
 20
1073.192785843826
 30
0.0
 10
2214.524243424888
 20
1067.56740531611
 30
0.0
 10
2216.244508080384
 20
1064.488463471211
 30
0.0
 10
2217.177563858178
 20
1062.966522235822
 30
0.0
 10
2217.661350041963
 20
1062.183903332511
 30
0.0
  0
SPLINE
  5
159
330
1F
100
AcDbEntity
  8
Miura_Table_9590-51_2D
100
AcDbSpline
210
0.0
220
0.0
230
1.0
 70
     8
 71
     3
 72
    18
 73
    14
 74
     0
 42
0.0000000001
 43
0.0000000001
 40
-23.989786789493
 40
-23.989786789493
 40
-23.989786789493
 40
-23.989786789493
 40
-22.58263901442267
 40
-21.34373030388689
 40
-18.62944873608983
 40
-13.20000755298573
 40
-11.39409917538949
 40
-8.514888277655798
 40
-6.682465050476555
 40
-5.425659454196719
 40
-3.282334438373458
 40
-1.290606615411304
 40
0.0
 40
0.0
 40
0.0
 40
0.0
 10
2217.661350041963
 20
1062.183903332511
 30
0.0
 10
2217.907978845969
 20
1061.784932939007
 30
0.0
 10
2218.373211782427
 20
1061.035560617538
 30
0.0
 10
2219.339590456757
 20
1059.53260341574
 30
0.0
 10
2221.08498252496
 20
1056.937052406014
 30
0.0
 10
2223.045523330356
 20
1054.260556704212
 30
0.0
 10
2225.132906109498
 20
1051.612757960446
 30
0.0
 10
2226.518987327227
 20
1049.939571256639
 30
0.0
 10
2227.81357365975
 20
1048.428940534602
 30
0.0
 10
2228.958664227502
 20
1047.113248135549
 30
0.0
 10
2230.139437440829
 20
1045.758281892095
 30
0.0
 10
2231.322066677044
 20
1044.389948440818
 30
0.0
 10
2232.052198088433
 20
1043.545355920221
 30
0.0
 10
2232.333834090605
 20
1043.220150676683
 30
0.0
  0
SPLINE
  5
15A
330
1F
100
AcDbEntity
  8
Miura_Table_9590-51_2D
100
AcDbSpline
210
0.0
220
0.0
230
1.0
 70
    24
 71
     2
 72
     6
 73
     3
 74
     0
 42
0.0000000001
 43
0.0000000001
 40
-405.407916564433
 40
-405.407916564433
 40
-405.407916564433
 40
0.0
 40
0.0
 40
0.0
 10
2232.333834090604
 20
1043.220150676683
 30
0.0
 10
2365.034724399666
 20
889.9903610975653
 30
0.0
 10
2497.735614708728
 20
736.7605715184473
 30
0.0
  0
POLYLINE
  5
15B
330
1F
100
AcDbEntity
  8
Miura_Table_9590-51_2D
100
AcDb2dPolyline
 66
     1
 10
0.0
 20
0.0
 30
0.0
  0
VERTEX
  5
15C
330
15B
100
AcDbEntity
  8
Miura_Table_9590-51_2D
100
AcDbVertex
100
AcDb2dVertex
 10
2497.735614708728
 20
736.7605715184473
 30
0.0
  0
VERTEX
  5
15D
330
15B
100
AcDbEntity
  8
Miura_Table_9590-51_2D
100
AcDbVertex
100
AcDb2dVertex
 10
2453.067180596665
 20
736.7608952511366
 30
0.0
  0
SEQEND
  5
15E
330
15B
100
AcDbEntity
  8
Miura_Table_9590-51_2D
  0
SPLINE
  5
15F
330
1F
100
AcDbEntity
  8
Miura_Table_9590-51_2D
100
AcDbSpline
210
0.0
220
0.0
230
1.0
 70
    24
 71
     2
 72
     6
 73
     3
 74
     0
 42
0.0000000001
 43
0.0000000001
 40
-379.0828237665147
 40
-379.0828237665147
 40
-379.0828237665147
 40
0.0
 40
0.0
 40
0.0
 10
2453.067180596665
 20
736.7608952511366
 30
0.0
 10
2328.983199600465
 20
880.0407350013031
 30
0.0
 10
2204.899218604265
 20
1023.32057475147
 30
0.0
  0
SPLINE
  5
160
330
1F
100
AcDbEntity
  8
Miura_Table_9590-51_2D
100
AcDbSpline
210
0.0
220
0.0
230
1.0
 70
    12
 71
     2
 72
     6
 73
     3
 74
     0
 42
0.0000000001
 43
0.0000000001
 40
0.0
 40
0.0
 40
0.0
 40
3.028274426341321
 40
3.028274426341321
 40
3.028274426341321
 10
2154.695017287331
 20
1055.104054691965
 30
0.0
 41
1.0
 10
2154.642662284612
 20
1053.590686222147
 30
0.0
 41
0.999864696217075
 10
2154.640117483182
 20
1052.07641455044
 30
0.0
 41
1.0
  0
SPLINE
  5
161
330
1F
100
AcDbEntity
  8
Miura_Table_9590-51_2D
100
AcDbSpline
210
0.0
220
0.0
230
1.0
 70
     8
 71
     3
 72
     8
 73
     4
 74
     0
 42
0.0000000001
 43
0.0000000001
 40
-17.56166272600342
 40
-17.56166272600342
 40
-17.56166272600342
 40
-17.56166272600342
 40
0.0
 40
0.0
 40
0.0
 40
0.0
 10
2154.640117483182
 20
1052.07641455044
 30
0.0
 10
2154.640117494295
 20
1046.222526975106
 30
0.0
 10
2154.640116321896
 20
1040.276885664282
 30
0.0
 10
2154.640116321896
 20
1034.422998088948
 30
0.0
  0
SPLINE
  5
162
330
1F
100
AcDbEntity
  8
Miura_Table_9590-51_2D
100
AcDbSpline
210
0.0
220
0.0
230
1.0
 70
    24
 71
     2
 72
     6
 73
     3
 74
     0
 42
0.0000000001
 43
0.0000000001
 40
-297.6614457198009
 40
-297.6614457198009
 40
-297.6614457198009
 40
0.0
 40
0.0
 40
0.0
 10
2154.640116321896
 20
1034.422998088948
 30
0.0
 10
2154.640116321896
 20
885.5922752290476
 30
0.0
 10
2154.640116321896
 20
736.761552369147
 30
0.0
  0
POLYLINE
  5
163
330
1F
100
AcDbEntity
  8
Miura_Table_9590-51_2D
100
AcDb2dPolyline
 66
     1
 10
0.0
 20
0.0
 30
0.0
  0
VERTEX
  5
164
330
163
100
AcDbEntity
  8
Miura_Table_9590-51_2D
100
AcDbVertex
100
AcDb2dVertex
 10
2154.640116321896
 20
736.761552369147
 30
0.0
  0
VERTEX
  5
165
330
163
100
AcDbEntity
  8
Miura_Table_9590-51_2D
100
AcDbVertex
100
AcDb2dVertex
 10
2204.899218604265
 20
736.761552369147
 30
0.0
  0
SEQEND
  5
166
330
163
100
AcDbEntity
  8
Miura_Table_9590-51_2D
  0
SPLINE
  5
167
330
1F
100
AcDbEntity
  8
Miura_Table_9590-51_2D
100
AcDbSpline
210
0.0
220
0.0
230
1.0
 70
    24
 71
     2
 72
     6
 73
     3
 74
     0
 42
0.0000000001
 43
0.0000000001
 40
0.0
 40
0.0
 40
0.0
 40
297.6614457198009
 40
297.6614457198009
 40
297.6614457198009
 10
2204.899218604265
 20
736.761552369147
 30
0.0
 10
2204.899218604265
 20
885.5922752290476
 30
0.0
 10
2204.899218604265
 20
1034.422998088948
 30
0.0
  0
SPLINE
  5
168
330
1F
100
AcDbEntity
  8
Miura_Table_9590-51_2D
100
AcDbSpline
210
0.0
220
0.0
230
1.0
 70
     8
 71
     3
 72
     8
 73
     4
 74
     0
 42
0.0000000001
 43
0.0000000001
 40
0.0
 40
0.0
 40
0.0
 40
0.0
 40
17.56166272600342
 40
17.56166272600342
 40
17.56166272600342
 40
17.56166272600342
 10
2204.899218604265
 20
1034.422998088948
 30
0.0
 10
2204.899218604265
 20
1040.276885664282
 30
0.0
 10
2204.899217431866
 20
1046.222526975106
 30
0.0
 10
2204.89921744298
 20
1052.07641455044
 30
0.0
  0
SPLINE
  5
169
330
1F
100
AcDbEntity
  8
Miura_Table_9590-51_2D
100
AcDbSpline
210
0.0
220
0.0
230
1.0
 70
    12
 71
     2
 72
     6
 73
     3
 74
     0
 42
0.0000000001
 43
0.0000000001
 40
-3.028274426341321
 40
-3.028274426341321
 40
-3.028274426341321
 40
0.0
 40
0.0
 40
0.0
 10
2204.89921744298
 20
1052.07641455044
 30
0.0
 41
1.0
 10
2204.896672641549
 20
1053.590686222147
 30
0.0
 41
0.999864696217075
 10
2204.84431763883
 20
1055.104054691965
 30
0.0
 41
1.0
  0
SPLINE
  5
16A
330
1F
100
AcDbEntity
  8
Miura_Table_9590-51_2D
 62
     9
100
AcDbSpline
210
0.0
220
0.0
230
1.0
 70
     8
 71
     3
 72
    12
 73
     8
 74
     0
 42
0.0000000001
 43
0.0000000001
 40
28.4242465224738
 40
28.4242465224738
 40
28.4242465224738
 40
28.4242465224738
 40
30.1563342873369
 40
32.34208490377009
 40
34.43000439321897
 40
35.44727884989575
 40
36.53847946972826
 40
36.53847946972826
 40
36.53847946972826
 40
36.53847946972826
 10
290.7514582881464
 20
-194.8424735608648
 30
0.0
 10
290.1762776490344
 20
-194.79218134206
 30
0.0
 10
288.8801588777011
 20
-194.6205921734951
 30
0.0
 10
286.9290666119896
 20
-194.1576719484749
 30
0.0
 10
285.2707322675105
 20
-193.5490039580934
 30
0.0
 10
284.0003326397336
 20
-192.9621052943803
 30
0.0
 10
283.3839350887192
 20
-192.6236590102625
 30
0.0
 10
283.0665179286143
 20
-192.4461548493713
 30
0.0
  0
SPLINE
  5
16B
330
1F
100
AcDbEntity
  8
Miura_Table_9590-51_2D
 62
     9
100
AcDbSpline
210
0.0
220
0.0
230
1.0
 70
     8
 71
     3
 72
    12
 73
     8
 74
     0
 42
0.0000000001
 43
0.0000000001
 40
0.0
 40
0.0
 40
0.0
 40
0.0
 40
1.09120061983259
 40
2.108475076510266
 40
4.196394565957977
 40
6.382145182392395
 40
8.114214885926136
 40
8.114214885926136
 40
8.114214885926136
 40
8.114214885926136
 10
308.1965179244971
 20
-148.9197180622961
 30
0.0
 10
308.5089404992941
 20
-149.1058711441284
 30
0.0
 10
309.1102677447816
 20
-149.4704254059214
 30
0.0
 10
310.2537078339783
 20
-150.2773367782505
 30
0.0
 10
311.6099442472723
 20
-151.4088108428403
 30
0.0
 10
312.986565454736
 20
-152.8674642385174
 30
0.0
 10
313.7831330273523
 20
-153.9040190987819
 30
0.0
 10
314.114245545028
 20
-154.3769436984612
 30
0.0
  0
SPLINE
  5
16C
330
1F
100
AcDbEntity
  8
Miura_Table_9590-51_2D
 62
     9
100
AcDbSpline
210
0.0
220
0.0
230
1.0
 70
     8
 71
     3
 72
    12
 73
     8
 74
     0
 42
0.0000000001
 43
0.0000000001
 40
28.42424652247151
 40
28.42424652247151
 40
28.42424652247151
 40
28.42424652247151
 40
30.15633428733683
 40
32.34208490377019
 40
34.43000439321883
 40
35.4472788498954
 40
36.53847946972824
 40
36.53847946972824
 40
36.53847946972824
 40
36.53847946972824
 10
-314.1142609839799
 20
-154.376912284474
 30
0.0
 10
-313.7831163253262
 20
-153.9039373486401
 30
0.0
 10
-312.9864563606687
 20
-152.8672601506263
 30
0.0
 10
-311.6100095530182
 20
-151.409024795902
 30
0.0
 10
-310.253720438639
 20
-150.2771991208055
 30
0.0
 10
-309.1102514725262
 20
-149.4704501020484
 30
0.0
 10
-308.5089496171577
 20
-149.1058573060992
 30
0.0
 10
-308.1965179244962
 20
-148.9197180622961
 30
0.0
  0
SPLINE
  5
16D
330
1F
100
AcDbEntity
  8
Miura_Table_9590-51_2D
 62
     9
100
AcDbSpline
210
0.0
220
0.0
230
1.0
 70
     8
 71
     3
 72
    12
 73
     8
 74
     0
 42
0.0000000001
 43
0.0000000001
 40
0.0
 40
0.0
 40
0.0
 40
0.0
 40
1.091200619832687
 40
2.108475076510281
 40
4.196394565958211
 40
6.382145182392561
 40
8.11421488592736
 40
8.11421488592736
 40
8.11421488592736
 40
8.11421488592736
 10
-283.0665179286125
 20
-192.4461548493709
 30
0.0
 10
-283.3839425138713
 20
-192.6236441949457
 30
0.0
 10
-284.0003193883867
 20
-192.9621317346286
 30
0.0
 10
-285.2708451800208
 20
-193.5489242134122
 30
0.0
 10
-286.928848670329
 20
-194.1577223685699
 30
0.0
 10
-288.8803901700337
 20
-194.620584607783
 30
0.0
 10
-290.1763567977472
 20
-194.792154931367
 30
0.0
 10
-290.7514777739822
 20
-194.8424444833454
 30
0.0
  0
SPLINE
  5
16E
330
1F
100
AcDbEntity
  8
Miura_Table_9590-51_2D
 62
     9
100
AcDbSpline
210
0.0
220
0.0
230
1.0
 70
     8
 71
     3
 72
    12
 73
     8
 74
     0
 42
0.0000000001
 43
0.0000000001
 40
28.42424652247416
 40
28.42424652247416
 40
28.42424652247416
 40
28.42424652247416
 40
30.15633428733689
 40
32.34208490377012
 40
34.43000439321897
 40
35.44727884989555
 40
36.5384794697283
 40
36.5384794697283
 40
36.5384794697283
 40
36.5384794697283
 10
23.36280269583567
 20
349.2193858453385
 30
0.0
 10
23.60683867629397
 20
348.6961186907005
 30
0.0
 10
24.10629748296894
 20
347.4878523241223
 30
0.0
 10
24.68094294103048
 20
345.5666967443788
 30
0.0
 10
24.98298817113027
 20
343.8262030788999
 30
0.0
 10
25.1099188327953
 20
342.4325553964306
 30
0.0
 10
25.12501452843844
 20
341.7295163163628
 30
0.0
 10
25.12999999588374
 20
341.3658729116689
 30
0.0
  0
SPLINE
  5
16F
330
1F
100
AcDbEntity
  8
Miura_Table_9590-51_2D
 62
     9
100
AcDbSpline
210
0.0
220
0.0
230
1.0
 70
     8
 71
     3
 72
    12
 73
     8
 74
     0
 42
0.0000000001
 43
0.0000000001
 40
0.0
 40
0.0
 40
0.0
 40
0.0
 40
1.091200619832775
 40
2.10847507651029
 40
4.196394565958102
 40
6.382145182392427
 40
8.114214885926131
 40
8.114214885926131
 40
8.114214885926131
 40
8.114214885926131
 10
-25.12999999588192
 20
341.3658729116685
 30
0.0
 10
-25.12499798542376
 20
341.7295153390752
 30
0.0
 10
-25.10994835639485
 20
342.4325571405516
 30
0.0
 10
-24.982862653952
 20
343.8262609916644
 30
0.0
 10
-24.68109557694243
 20
345.566533211412
 30
0.0
 10
-24.106175284701
 20
347.4880488463018
 30
0.0
 10
-23.60677622960444
 20
348.6961740301502
 30
0.0
 10
-23.3627677710456
 20
349.2193881818079
 30
0.0
  0
SPLINE
  5
170
330
1F
100
AcDbEntity
  8
Miura_Table_9590-51_2D
 62
     9
100
AcDbSpline
210
0.0
220
0.0
230
1.0
 70
     8
 71
     3
 72
    10
 73
     6
 74
     0
 42
0.0000000001
 43
0.0000000001
 40
0.0
 40
0.0
 40
0.0
 40
0.0
 40
1.953155402088032
 40
3.893592821351477
 40
4.469112282819414
 40
4.469112282819414
 40
4.469112282819414
 40
4.469112282819414
 10
311.0890678691057
 20
-150.993479551156
 30
0.0
 10
311.5965982939906
 20
-151.4012487369625
 30
0.0
 10
312.5669657744756
 20
-152.2657110115049
 30
0.0
 10
313.5724621828659
 20
-153.3676175636324
 30
0.0
 10
314.0962104701271
 20
-154.0226770718925
 30
0.0
 10
314.2137785858466
 20
-154.1742564334414
 30
0.0
  0
SPLINE
  5
171
330
1F
100
AcDbEntity
  8
Miura_Table_9590-51_2D
 62
     9
100
AcDbSpline
210
0.0
220
0.0
230
1.0
 70
     8
 71
     3
 72
    10
 73
     6
 74
     0
 42
0.0000000001
 43
0.0000000001
 40
29.24666785956914
 40
29.24666785956914
 40
29.24666785956914
 40
29.24666785956914
 40
29.82218011666199
 40
31.76261295261775
 40
33.71577125458974
 40
33.71577125458974
 40
33.71577125458974
 40
33.71577125458974
 10
290.6257086470006
 20
-195.0299912152711
 30
0.0
 10
290.435655615721
 20
-195.0039644460376
 30
0.0
 10
289.6064867604035
 20
-194.8779154666741
 30
0.0
 10
288.1494467421498
 20
-194.5580734590921
 30
0.0
 10
286.9156351980791
 20
-194.1499601684706
 30
0.0
 10
286.3087255693281
 20
-193.9142966940705
 30
0.0
  0
SPLINE
  5
172
330
1F
100
AcDbEntity
  8
Miura_Table_9590-51_2D
 62
     9
100
AcDbSpline
210
0.0
220
0.0
230
1.0
 70
     8
 71
     3
 72
    10
 73
     6
 74
     0
 42
0.0000000001
 43
0.0000000001
 40
0.0
 40
0.0
 40
0.0
 40
0.0
 40
1.953155402088667
 40
3.89359282135179
 40
4.46911228281638
 40
4.46911228281638
 40
4.46911228281638
 40
4.46911228281638
 10
-286.3087230316596
 20
-193.9142958386878
 30
0.0
 10
-286.9156267178905
 20
-194.1499454869296
 30
0.0
 10
-288.1494567485015
 20
-194.5580772387653
 30
0.0
 10
-289.606484019436
 20
-194.8779093957816
 30
0.0
 10
-290.43565633821
 20
-195.0039589636084
 30
0.0
 10
-290.6257119738596
 20
-195.0299862577221
 30
0.0
  0
SPLINE
  5
173
330
1F
100
AcDbEntity
  8
Miura_Table_9590-51_2D
 62
     9
100
AcDbSpline
210
0.0
220
0.0
230
1.0
 70
     8
 71
     3
 72
    10
 73
     6
 74
     0
 42
0.0000000001
 43
0.0000000001
 40
29.24666785956805
 40
29.24666785956805
 40
29.24666785956805
 40
29.24666785956805
 40
29.82218011666223
 40
31.76261295261852
 40
33.71577125458879
 40
33.71577125458879
 40
33.71577125458879
 40
33.71577125458879
 10
-314.2137812157808
 20
-154.1742510735219
 30
0.0
 10
-314.0962148568063
 20
-154.022673704984
 30
0.0
 10
-313.5724688108978
 20
-153.3676169019334
 30
0.0
 10
-312.5669574980084
 20
-152.2657042355859
 30
0.0
 10
-311.5966152486717
 20
-151.4012487402476
 30
0.0
 10
-311.0890698787216
 20
-150.9934813211494
 30
0.0
  0
SPLINE
  5
174
330
1F
100
AcDbEntity
  8
Miura_Table_9590-51_2D
 62
     9
100
AcDbSpline
210
0.0
220
0.0
230
1.0
 70
     8
 71
     3
 72
    10
 73
     6
 74
     0
 42
0.0000000001
 43
0.0000000001
 40
0.0
 40
0.0
 40
0.0
 40
0.0
 40
1.953155402089815
 40
3.893592821353497
 40
4.469112282817966
 40
4.469112282817966
 40
4.469112282817966
 40
4.469112282817966
 10
-24.78034483744432
 20
344.9077753898437
 30
0.0
 10
-24.68097157609827
 20
345.5511942238919
 30
0.0
 10
-24.41750902597141
 20
346.8237882502723
 30
0.0
 10
-23.96597816342943
 20
348.2455269594153
 30
0.0
 10
-23.66055413191761
 20
349.0266360355011
 30
0.0
 10
-23.58806661198733
 20
349.2042426911626
 30
0.0
  0
SPLINE
  5
175
330
1F
100
AcDbEntity
  8
Miura_Table_9590-51_2D
 62
     9
100
AcDbSpline
210
0.0
220
0.0
230
1.0
 70
     8
 71
     3
 72
    10
 73
     6
 74
     0
 42
0.0000000001
 43
0.0000000001
 40
29.24666785957017
 40
29.24666785957017
 40
29.24666785957017
 40
29.24666785957017
 40
29.82218011666214
 40
31.76261295261828
 40
33.71577125458813
 40
33.71577125458813
 40
33.71577125458813
 40
33.71577125458813
 10
23.58807256878304
 20
349.2042422887926
 30
0.0
 10
23.66055924108799
 20
349.0266381510218
 30
0.0
 10
23.9659820504966
 20
348.2455323686083
 30
0.0
 10
24.41751075585944
 20
346.8237776946791
 30
0.0
 10
24.68098005059528
 20
345.5512089087209
 30
0.0
 10
24.78034430939442
 20
344.9077780152224
 30
0.0
  0
SPLINE
  5
176
330
1F
100
AcDbEntity
  8
Miura_Table_9590-51_2D
100
AcDbSpline
210
0.0
220
0.0
230
1.0
 70
     8
 71
     3
 72
    17
 73
    13
 74
     0
 42
0.0000000001
 43
0.0000000001
 40
8.11421488592736
 40
8.11421488592736
 40
8.11421488592736
 40
8.11421488592736
 40
8.490982845351999
 40
12.81895580244923
 40
17.27666290000628
 40
21.9353699469448
 40
26.72660484100899
 40
31.59160549890699
 40
34.06202637132714
 40
35.29851844026844
 40
35.89107656027871
 40
36.5384794697291
 40
36.5384794697291
 40
36.5384794697291
 40
36.5384794697291
 10
-290.7514777739822
 20
-194.8424444833454
 30
0.0
 10
-290.8765807973745
 20
-194.8533837035399
 30
0.0
 10
-292.440039663252
 20
-194.9748796729043
 30
0.0
 10
-295.5089099694305
 20
-194.8439557456604
 30
0.0
 10
-299.8746461100136
 20
-193.7399671477191
 30
0.0
 10
-304.087874156935
 20
-191.7570138312738
 30
0.0
 10
-307.9775126510622
 20
-188.9608003372859
 30
0.0
 10
-310.8171127291389
 20
-186.0636990912938
 30
0.0
 10
-312.5451557124743
 20
-183.7849328132809
 30
0.0
 10
-313.3383929019992
 20
-182.5910057862807
 30
0.0
 10
-313.7740315529591
 20
-181.8897561516275
 30
0.0
 10
-313.9833774970575
 20
-181.5333396044964
 30
0.0
 10
-314.0920039379062
 20
-181.3468765236792
 30
0.0
  0
SPLINE
  5
177
330
1F
100
AcDbEntity
  8
Miura_Table_9590-51_2D
100
AcDbSpline
210
0.0
220
0.0
230
1.0
 70
    24
 71
     2
 72
     6
 73
     3
 74
     0
 42
0.0000000001
 43
0.0000000001
 40
0.0
 40
0.0
 40
0.0
 40
0.0049689727684098
 40
0.0049689727684098
 40
0.0049689727684098
 10
-314.0920039379062
 20
-181.3468765236792
 30
0.0
 10
-314.0932495822217
 20
-181.3447179029575
 30
0.0
 10
-314.0944952265372
 20
-181.3425592822358
 30
0.0
  0
SPLINE
  5
178
330
1F
100
AcDbEntity
  8
Miura_Table_9590-51_2D
100
AcDbSpline
210
0.0
220
0.0
230
1.0
 70
    24
 71
     2
 72
     6
 73
     3
 74
     0
 42
0.0000000001
 43
0.0000000001
 40
0.0
 40
0.0
 40
0.0
 40
0.0049999976354267
 40
0.0049999976354267
 40
0.0049999976354267
 10
-314.0944952265372
 20
-181.3425592822358
 30
0.0
 10
-314.095749580978
 20
-181.3403877780921
 30
0.0
 10
-314.0970039354188
 20
-181.3382162739484
 30
0.0
  0
SPLINE
  5
179
330
1F
100
AcDbEntity
  8
Miura_Table_9590-51_2D
100
AcDbSpline
210
0.0
220
0.0
230
1.0
 70
     8
 71
     3
 72
    17
 73
    13
 74
     0
 42
0.0000000001
 43
0.0000000001
 40
0.0
 40
0.0
 40
0.0
 40
0.0
 40
0.6474029094494481
 40
1.239961029460378
 40
2.476453098401701
 40
4.946873970821114
 40
9.81187462871941
 40
14.60310952278433
 40
19.26181656972226
 40
23.71952366727875
 40
28.04749662437724
 40
28.42424652247151
 40
28.42424652247151
 40
28.42424652247151
 40
28.42424652247151
 10
-314.0970039354188
 20
-181.3382162739484
 30
0.0
 10
-314.2041697051127
 20
-181.1509099550525
 30
0.0
 10
-314.4081705238486
 20
-180.7914071651861
 30
0.0
 10
-314.7974749608175
 20
-180.0634298001096
 30
0.0
 10
-315.4351875735201
 20
-178.7796580056423
 30
0.0
 10
-316.5442846490805
 20
-176.1436268969246
 30
0.0
 10
-317.6337947178627
 20
-172.2359841849917
 30
0.0
 10
-318.1103777557264
 20
-167.4693519956798
 30
0.0
 10
-317.7210600642156
 20
-162.8290446808474
 30
0.0
 10
-316.4941912444083
 20
-158.4962010702784
 30
0.0
 10
-315.0733059747289
 20
-155.7731511039876
 30
0.0
 10
-314.1862889255963
 20
-154.4797900153207
 30
0.0
 10
-314.1142609839799
 20
-154.376912284474
 30
0.0
  0
SPLINE
  5
17A
330
1F
100
AcDbEntity
  8
Miura_Table_9590-51_2D
100
AcDbSpline
210
0.0
220
0.0
230
1.0
 70
     8
 71
     3
 72
    17
 73
    13
 74
     0
 42
0.0000000001
 43
0.0000000001
 40
8.114214885926136
 40
8.114214885926136
 40
8.114214885926136
 40
8.114214885926136
 40
8.490982845352113
 40
12.81895580244948
 40
17.27666290000627
 40
21.93536994694479
 40
26.72660484100899
 40
31.591605498907
 40
34.06202637132719
 40
35.29851844026861
 40
35.89107656027873
 40
36.53847946972913
 40
36.53847946972913
 40
36.53847946972913
 40
36.53847946972913
 10
314.114245545028
 20
-154.3769436984612
 30
0.0
 10
314.1862706993105
 20
-154.4798164847122
 30
0.0
 10
315.073218728177
 20
-155.7730635956526
 30
0.0
 10
316.4942704343111
 20
-158.4962452053456
 30
0.0
 10
317.7210563332947
 20
-162.8290779082803
 30
0.0
 10
318.1103824101992
 20
-167.4693170870758
 30
0.0
 10
317.6336097370586
 20
-172.2359495815191
 30
0.0
 10
316.5444464997372
 20
-176.1436660087201
 30
0.0
 10
315.434998505355
 20
-178.7795782701248
 30
0.0
 10
314.7976459644733
 20
-180.0635053409805
 30
0.0
 10
314.4081652919476
 20
-180.7914042969088
 30
0.0
 10
314.2041724798519
 20
-181.1509114762432
 30
0.0
 10
314.0970039354206
 20
-181.3382162739489
 30
0.0
  0
SPLINE
  5
17B
330
1F
100
AcDbEntity
  8
Miura_Table_9590-51_2D
100
AcDbSpline
210
0.0
220
0.0
230
1.0
 70
    24
 71
     2
 72
     6
 73
     3
 74
     0
 42
0.0000000001
 43
0.0000000001
 40
0.0
 40
0.0
 40
0.0
 40
0.0049689727683289
 40
0.0049689727683289
 40
0.0049689727683289
 10
314.0970039354206
 20
-181.3382162739489
 30
0.0
 10
314.0957573371963
 20
-181.3403743439312
 30
0.0
 10
314.0945107389721
 20
-181.3425324139135
 30
0.0
  0
SPLINE
  5
17C
330
1F
100
AcDbEntity
  8
Miura_Table_9590-51_2D
100
AcDbSpline
210
0.0
220
0.0
230
1.0
 70
    24
 71
     2
 72
     6
 73
     3
 74
     0
 42
0.0000000001
 43
0.0000000001
 40
0.0
 40
0.0
 40
0.0
 40
0.0049999976354462
 40
0.0049999976354462
 40
0.0049999976354462
 10
314.0945107389721
 20
-181.3425324139135
 30
0.0
 10
314.0932573384396
 20
-181.3447044687966
 30
0.0
 10
314.0920039379071
 20
-181.3468765236796
 30
0.0
  0
SPLINE
  5
17D
330
1F
100
AcDbEntity
  8
Miura_Table_9590-51_2D
100
AcDbSpline
210
0.0
220
0.0
230
1.0
 70
     8
 71
     3
 72
    17
 73
    13
 74
     0
 42
0.0000000001
 43
0.0000000001
 40
0.0
 40
0.0
 40
0.0
 40
0.0
 40
0.6474029094493622
 40
1.239961029460211
 40
2.476453098401548
 40
4.946873970820978
 40
9.81187462871942
 40
14.60310952278444
 40
19.26181656972225
 40
23.71952366727886
 40
28.04749662437723
 40
28.4242465224738
 40
28.4242465224738
 40
28.4242465224738
 40
28.4242465224738
 10
314.0920039379071
 20
-181.3468765236796
 30
0.0
 10
313.9833747923012
 20
-181.5333379620981
 30
0.0
 10
313.7740366529133
 20
-181.8897592484489
 30
0.0
 10
313.3382419798618
 20
-182.5908954632085
 30
0.0
 10
312.5453192995428
 20
-183.7850566833573
 30
0.0
 10
310.8169979320064
 20
-186.0635784804133
 30
0.0
 10
307.9776351089504
 20
-188.9609432336235
 30
0.0
 10
304.087902061442
 20
-191.7569923460842
 30
0.0
 10
299.8746191996761
 20
-193.7399869925092
 30
0.0
 10
295.5088321523917
 20
-194.8439092327275
 30
0.0
 10
292.440159070972
 20
-194.9749114764693
 30
0.0
 10
290.8765669873523
 20
-194.8534127226637
 30
0.0
 10
290.7514582881464
 20
-194.8424735608648
 30
0.0
  0
SPLINE
  5
17E
330
1F
100
AcDbEntity
  8
Miura_Table_9590-51_2D
100
AcDbSpline
210
0.0
220
0.0
230
1.0
 70
     8
 71
     3
 72
    17
 73
    13
 74
     0
 42
0.0000000001
 43
0.0000000001
 40
8.114214885926131
 40
8.114214885926131
 40
8.114214885926131
 40
8.114214885926131
 40
8.490982845352077
 40
12.81895580244936
 40
17.27666290000615
 40
21.93536994694509
 40
26.72660484100907
 40
31.5916054989074
 40
34.06202637132732
 40
35.29851844026865
 40
35.89107656027872
 40
36.53847946972933
 40
36.53847946972933
 40
36.53847946972933
 40
36.53847946972933
 10
-23.3627677710456
 20
349.2193881818079
 30
0.0
 10
-23.30968990193541
 20
349.3332001882534
 30
0.0
 10
-22.63317906492385
 20
350.7479432685581
 30
0.0
 10
-20.98536046487607
 20
353.3402009510077
 30
0.0
 10
-17.84641022328015
 20
356.5690450560007
 30
0.0
 10
-14.02250825326155
 20
359.2263309183511
 30
0.0
 10
-9.656097085994588
 20
361.1967499188062
 30
0.0
 10
-5.727333770593759
 20
362.2073651000163
 30
0.0
 10
-2.88984279287979
 20
362.5645110834067
 30
0.0
 10
-1.459253062470452
 20
362.6545111272628
 30
0.0
 10
-0.6341337389876571
 20
362.681160448538
 30
0.0
 10
-0.2207949827907214
 20
362.6842510807413
 30
0.0
 10
-0.0049999975121864
 20
362.6850927976295
 30
0.0
  0
SPLINE
  5
17F
330
1F
100
AcDbEntity
  8
Miura_Table_9590-51_2D
100
AcDbSpline
210
0.0
220
0.0
230
1.0
 70
    24
 71
     2
 72
     6
 73
     3
 74
     0
 42
0.0000000001
 43
0.0000000001
 40
0.0
 40
0.0
 40
0.0
 40
0.004968972768345
 40
0.004968972768345
 40
0.004968972768345
 10
-0.0049999975121864
 20
362.6850927976295
 30
0.0
 10
-0.0025077549723846
 20
362.6850922468902
 30
0.0
 10
-0.0000155124325829
 20
362.6850916961508
 30
0.0
  0
SPLINE
  5
180
330
1F
100
AcDbEntity
  8
Miura_Table_9590-51_2D
100
AcDbSpline
210
0.0
220
0.0
230
1.0
 70
    24
 71
     2
 72
     6
 73
     3
 74
     0
 42
0.0000000001
 43
0.0000000001
 40
0.0
 40
0.0
 40
0.0
 40
0.0049999976354052
 40
0.0049999976354052
 40
0.0049999976354052
 10
-0.0000155124325829
 20
362.6850916961508
 30
0.0
 10
0.0024922425404839
 20
362.6850922468902
 30
0.0
 10
0.0049999975135506
 20
362.6850927976295
 30
0.0
  0
SPLINE
  5
181
330
1F
100
AcDbEntity
  8
Miura_Table_9590-51_2D
100
AcDbSpline
210
0.0
220
0.0
230
1.0
 70
     8
 71
     3
 72
    17
 73
    13
 74
     0
 42
0.0000000001
 43
0.0000000001
 40
0.0
 40
0.0
 40
0.0
 40
0.0
 40
0.6474029094497074
 40
1.239961029460453
 40
2.476453098401801
 40
4.946873970821248
 40
9.811874628719307
 40
14.60310952278406
 40
19.26181656972217
 40
23.71952366727891
 40
28.04749662437724
 40
28.42424652247416
 40
28.42424652247416
 40
28.42424652247416
 40
28.42424652247416
 10
0.0049999975135506
 20
362.6850927976295
 30
0.0
 10
0.2207949128123801
 20
362.6842479171514
 30
0.0
 10
0.634133870938058
 20
362.6811664136364
 30
0.0
 10
1.459232980959314
 20
362.6543252633205
 30
0.0
 10
2.889868273977299
 20
362.5647146890003
 30
0.0
 10
5.727286717078641
 20
362.2072053773397
 30
0.0
 10
9.656159608911366
 20
361.1969274186164
 30
0.0
 10
14.02247569428891
 20
359.2263443417654
 30
0.0
 10
17.84644086454227
 20
356.5690316733587
 30
0.0
 10
20.98535909201746
 20
353.3401103030067
 30
0.0
 10
22.63314690376052
 20
350.7480625804581
 30
0.0
 10
23.30972193824661
 20
349.3332027379848
 30
0.0
 10
23.36280269583567
 20
349.2193858453385
 30
0.0
  0
SPLINE
  5
182
330
1F
100
AcDbEntity
  8
Miura_Table_9590-51_2D
100
AcDbSpline
210
0.0
220
0.0
230
1.0
 70
     8
 71
     3
 72
    14
 73
    10
 74
     0
 42
0.0000000001
 43
0.0000000001
 40
4.46911228281638
 40
4.46911228281638
 40
4.46911228281638
 40
4.46911228281638
 40
7.847355141899257
 40
11.91041431683331
 40
16.08262218525761
 40
20.36384899089639
 40
24.75401733124737
 40
29.18049075025455
 40
33.71426896077073
 40
33.71426896077073
 40
33.71426896077073
 40
33.71426896077073
 10
-290.6257119738596
 20
-195.0299862577221
 30
0.0
 10
-291.7413199365315
 20
-195.1827639244343
 30
0.0
 10
-294.2278547251958
 20
-195.3063050349608
 30
0.0
 10
-298.0829420215314
 20
-194.7969136693844
 30
0.0
 10
-302.0646242760886
 20
-193.495325964117
 30
0.0
 10
-305.8547574636132
 20
-191.4715439241441
 30
0.0
 10
-309.3255825422948
 20
-188.7993624809075
 30
0.0
 10
-312.3882665442488
 20
-185.5522113894082
 30
0.0
 10
-314.0824246679894
 20
-183.0815440883316
 30
0.0
 10
-314.8380452550214
 20
-181.7726981689822
 30
0.0
  0
SPLINE
  5
183
330
1F
100
AcDbEntity
  8
Miura_Table_9590-51_2D
100
AcDbSpline
210
0.0
220
0.0
230
1.0
 70
     8
 71
     3
 72
    14
 73
    10
 74
     0
 42
0.0000000001
 43
0.0000000001
 40
0.0
 40
0.0
 40
0.0
 40
0.0
 40
4.517138906909165
 40
8.979902650677893
 40
13.35193316095314
 40
17.61498633512991
 40
21.78720833965956
 40
25.85028218837527
 40
29.24666785956805
 40
29.24666785956805
 40
29.24666785956805
 40
29.24666785956805
 10
-314.8380452550214
 20
-181.7726981689822
 30
0.0
 10
-315.5909318047256
 20
-180.4687038469565
 30
0.0
 10
-316.8873942083294
 20
-177.7608058030238
 30
0.0
 10
-318.1683647831887
 20
-173.4841738243882
 30
0.0
 10
-318.7455854827676
 20
-169.1421649931907
 30
0.0
 10
-318.6051075665664
 20
-164.8601490892594
 30
0.0
 10
-317.7458513318606
 20
-160.7664089068302
 30
0.0
 10
-316.2602051501003
 20
-157.1662165157188
 30
0.0
 10
-314.9075991007423
 20
-155.0687849364761
 30
0.0
 10
-314.2137812157808
 20
-154.1742510735219
 30
0.0
  0
SPLINE
  5
184
330
1F
100
AcDbEntity
  8
Miura_Table_9590-51_2D
100
AcDbSpline
210
0.0
220
0.0
230
1.0
 70
     8
 71
     3
 72
    14
 73
    10
 74
     0
 42
0.0000000001
 43
0.0000000001
 40
4.469112282819414
 40
4.469112282819414
 40
4.469112282819414
 40
4.469112282819414
 40
7.847355141898799
 40
11.91041431683293
 40
16.08262218525716
 40
20.363848990896
 40
24.75401733124694
 40
29.1804907502542
 40
33.7142689607704
 40
33.7142689607704
 40
33.7142689607704
 40
33.7142689607704
 10
314.2137785858466
 20
-154.1742564334414
 30
0.0
 10
314.9038919076846
 20
-155.064012436422
 30
0.0
 10
316.254149042142
 20
-157.1556441755343
 30
0.0
 10
317.7405468272564
 20
-160.7489433907572
 30
0.0
 10
318.6041799365184
 20
-164.8479752256353
 30
0.0
 10
318.7465998719399
 20
-169.1422178697456
 30
0.0
 10
318.1678353979178
 20
-173.4841312815921
 30
0.0
 10
316.887062063732
 20
-177.7600689768003
 30
0.0
 10
315.594480478572
 20
-180.4625866005253
 30
0.0
 10
314.8387969562918
 20
-181.771396184192
 30
0.0
  0
SPLINE
  5
185
330
1F
100
AcDbEntity
  8
Miura_Table_9590-51_2D
100
AcDbSpline
210
0.0
220
0.0
230
1.0
 70
     8
 71
     3
 72
    14
 73
    10
 74
     0
 42
0.0000000001
 43
0.0000000001
 40
0.0
 40
0.0
 40
0.0
 40
0.0
 40
4.517138906909315
 40
8.97990265067786
 40
13.35193316095309
 40
17.61498633512963
 40
21.78720833966017
 40
25.85028218837419
 40
29.24666785956914
 40
29.24666785956914
 40
29.24666785956914
 40
29.24666785956914
 10
314.8387969562918
 20
-181.771396184192
 30
0.0
 10
314.0859480218769
 20
-183.0754122234156
 30
0.0
 10
312.3890707267766
 20
-185.5521306219571
 30
0.0
 10
309.3258840780691
 20
-188.7997996705994
 30
0.0
 10
305.8542044765845
 20
-191.4706918756248
 30
0.0
 10
302.0756309662738
 20
-193.4900423834896
 30
0.0
 10
298.1007198544503
 20
-194.792774747091
 30
0.0
 10
294.2400386943502
 20
-195.3062636082072
 30
0.0
 10
291.7473066393461
 20
-195.1835881977713
 30
0.0
 10
290.6257086470006
 20
-195.0299912152711
 30
0.0
  0
SPLINE
  5
186
330
1F
100
AcDbEntity
  8
Miura_Table_9590-51_2D
100
AcDbSpline
210
0.0
220
0.0
230
1.0
 70
     8
 71
     3
 72
    14
 73
    10
 74
     0
 42
0.0000000001
 43
0.0000000001
 40
4.469112282817966
 40
4.469112282817966
 40
4.469112282817966
 40
4.469112282817966
 40
7.84735514190067
 40
11.91041431683501
 40
16.08262218525901
 40
20.36384899089777
 40
24.75401733124877
 40
29.18049075025599
 40
33.71426896077235
 40
33.71426896077235
 40
33.71426896077235
 40
33.71426896077235
 10
-23.58806661198733
 20
349.2042426911626
 30
0.0
 10
-23.1625719711565
 20
350.2467763608558
 30
0.0
 10
-22.02629431695463
 20
352.461949210495
 30
0.0
 10
-19.65760480572862
 20
355.5458570601426
 30
0.0
 10
-16.53955566043351
 20
358.3433011897528
 30
0.0
 10
-12.89184240833038
 20
360.6137617938907
 30
0.0
 10
-8.842252855626612
 20
362.2834937625015
 30
0.0
 10
-4.498795519482317
 20
363.3122803662109
 30
0.0
 10
-1.512055810581786
 20
363.5441306888571
 30
0.0
 10
-0.0007517012686549
 20
363.5440943531757
 30
0.0
  0
SPLINE
  5
187
330
1F
100
AcDbEntity
  8
Miura_Table_9590-51_2D
100
AcDbSpline
210
0.0
220
0.0
230
1.0
 70
     8
 71
     3
 72
    14
 73
    10
 74
     0
 42
0.0000000001
 43
0.0000000001
 40
0.0
 40
0.0
 40
0.0
 40
0.0
 40
4.517138906908955
 40
8.979902650677984
 40
13.35193316095315
 40
17.61498633513034
 40
21.78720833965958
 40
25.85028218837385
 40
29.24666785957017
 40
29.24666785957017
 40
29.24666785957017
 40
29.24666785957017
 10
-0.0007517012686549
 20
363.5440943531757
 30
0.0
 10
1.504983782848691
 20
363.5441160703728
 30
0.0
 10
4.498323481555579
 20
363.3129364249851
 30
0.0
 10
8.84248070511785
 20
362.2839734949893
 30
0.0
 10
12.89138100618311
 20
360.6128568688166
 30
0.0
 10
16.52947660029076
 20
358.350191472749
 30
0.0
 10
19.64513147741491
 20
355.559183653921
 30
0.0
 10
22.02016645575556
 20
352.4724801239267
 30
0.0
 10
23.16029246140019
 20
350.2523731342481
 30
0.0
 10
23.58807256878304
 20
349.2042422887926
 30
0.0
  0
ENDSEC
  0
SECTION
  2
OBJECTS
  0
DICTIONARY
  5
C
330
0
100
AcDbDictionary
281
     1
  3
ACAD_GROUP
350
D
  3
ACAD_LAYOUT
350
1A
  3
ACAD_MLEADERSTYLE
350
189
  3
ACAD_MLINESTYLE
350
17
  3
ACAD_PLOTSETTINGS
350
19
  3
ACAD_PLOTSTYLENAME
350
E
  3
ACAD_TABLESTYLE
350
188
  3
ACAD_VISUALSTYLE
350
2A
  0
DICTIONARY
  5
D
102
{ACAD_REACTORS
330
C
102
}
330
C
100
AcDbDictionary
281
     1
  0
DICTIONARY
  5
1A
102
{ACAD_REACTORS
330
C
102
}
330
C
100
AcDbDictionary
281
     1
  3
Layout1
350
1E
  3
Layout2
350
26
  3
Model
350
22
  0
DICTIONARY
  5
189
102
{ACAD_REACTORS
330
C
102
}
330
C
100
AcDbDictionary
281
     1
  0
DICTIONARY
  5
17
102
{ACAD_REACTORS
330
C
102
}
330
C
100
AcDbDictionary
281
     1
  3
Standard
350
18
  0
DICTIONARY
  5
19
102
{ACAD_REACTORS
330
C
102
}
330
C
100
AcDbDictionary
281
     1
  0
ACDBDICTIONARYWDFLT
  5
E
102
{ACAD_REACTORS
330
C
102
}
330
C
100
AcDbDictionary
281
     1
  3
Normal
350
F
100
AcDbDictionaryWithDefault
340
F
  0
DICTIONARY
  5
188
102
{ACAD_REACTORS
330
C
102
}
330
C
100
AcDbDictionary
281
     1
  0
DICTIONARY
  5
2A
102
{ACAD_REACTORS
330
C
102
}
330
C
100
AcDbDictionary
281
     1
  3
2dWireframe
350
2F
  3
3D Hidden
350
31
  3
3dWireframe
350
30
  3
Basic
350
32
  3
Brighten
350
36
  3
ColorChange
350
3A
  3
Conceptual
350
34
  3
Dim
350
35
  3
Facepattern
350
39
  3
Flat
350
2B
  3
FlatWithEdges
350
2C
  3
Gouraud
350
2D
  3
GouraudWithEdges
350
2E
  3
Linepattern
350
38
  3
Realistic
350
33
  3
Thicken
350
37
  0
LAYOUT
  5
1E
102
{ACAD_REACTORS
330
1A
102
}
330
1A
100
AcDbPlotSettings
  1

  2
none_device
  4

  6

 40
0.0
 41
0.0
 42
0.0
 43
0.0
 44
0.0
 45
0.0
 46
0.0
 47
0.0
 48
0.0
 49
0.0
140
0.0
141
0.0
142
1.0
143
1.0
 70
   688
 72
     0
 73
     0
 74
     5
  7

 75
    16
 76
     0
 77
     2
 78
   300
147
1.0
148
0.0
149
0.0
100
AcDbLayout
  1
Layout1
 70
     1
 71
     1
 10
0.0
 20
0.0
 11
12.0
 21
9.0
 12
0.0
 22
0.0
 32
0.0
 14
1.000000000000000E+20
 24
1.000000000000000E+20
 34
1.000000000000000E+20
 15
-1.000000000000000E+20
 25
-1.000000000000000E+20
 35
-1.000000000000000E+20
146
0.0
 13
0.0
 23
0.0
 33
0.0
 16
1.0
 26
0.0
 36
0.0
 17
0.0
 27
1.0
 37
0.0
 76
     0
330
1B
  0
LAYOUT
  5
26
102
{ACAD_REACTORS
330
1A
102
}
330
1A
100
AcDbPlotSettings
  1

  2
none_device
  4

  6

 40
0.0
 41
0.0
 42
0.0
 43
0.0
 44
0.0
 45
0.0
 46
0.0
 47
0.0
 48
0.0
 49
0.0
140
0.0
141
0.0
142
1.0
143
1.0
 70
   688
 72
     0
 73
     0
 74
     5
  7

 75
    16
 76
     0
 77
     2
 78
   300
147
1.0
148
0.0
149
0.0
100
AcDbLayout
  1
Layout2
 70
     1
 71
     2
 10
0.0
 20
0.0
 11
0.0
 21
0.0
 12
0.0
 22
0.0
 32
0.0
 14
0.0
 24
0.0
 34
0.0
 15
0.0
 25
0.0
 35
0.0
146
0.0
 13
0.0
 23
0.0
 33
0.0
 16
1.0
 26
0.0
 36
0.0
 17
0.0
 27
1.0
 37
0.0
 76
     0
330
23
  0
LAYOUT
  5
22
102
{ACAD_REACTORS
330
1A
102
}
330
1A
100
AcDbPlotSettings
  1

  2
none_device
  4

  6

 40
0.0
 41
0.0
 42
0.0
 43
0.0
 44
0.0
 45
0.0
 46
0.0
 47
0.0
 48
0.0
 49
0.0
140
0.0
141
0.0
142
1.0
143
1.0
 70
  1712
 72
     0
 73
     0
 74
     0
  7

 75
     0
 76
     0
 77
     2
 78
   300
147
1.0
148
0.0
149
0.0
100
AcDbLayout
  1
Model
 70
     1
 71
     0
 10
0.0
 20
0.0
 11
12.0
 21
9.0
 12
0.0
 22
0.0
 32
0.0
 14
-350.0004555227408
 24
-350.0
 34
0.0
 15
2529.770117481649
 25
1227.676498807622
 35
0.0
146
0.0
 13
0.0
 23
0.0
 33
0.0
 16
1.0
 26
0.0
 36
0.0
 17
0.0
 27
1.0
 37
0.0
 76
     0
330
1F
331
29
  0
MLINESTYLE
  5
18
102
{ACAD_REACTORS
330
17
102
}
330
17
100
AcDbMlineStyle
  2
Standard
 70
     0
  3

 62
   256
 51
90.0
 52
90.0
 71
     2
 49
0.5
 62
   256
  6
BYLAYER
 49
-0.5
 62
   256
  6
BYLAYER
  0
ACDBPLACEHOLDER
  5
F
102
{ACAD_REACTORS
330
E
102
}
330
E
  0
VISUALSTYLE
  5
2F
102
{ACAD_REACTORS
330
2A
102
}
330
2A
100
AcDbVisualStyle
  2
2dWireframe
 70
     4
 71
     0
 72
     2
 73
     0
 90
        0
 40
-0.6
 41
-30.0
 62
     5
 63
     7
421
 16777215
 74
     1
 91
        4
 64
     7
 65
   257
 75
     1
175
     1
 42
1.0
 92
        0
 66
   257
 43
1.0
 76
     1
 77
     6
 78
     2
 67
     7
 79
     5
170
     0
171
     0
290
     0
174
     0
 93
        1
 44
0.0
173
     0
291
     0
 45
0.0
1001
ACAD
1000
AcDbSavedByObjectVersion
1070
     0
  0
VISUALSTYLE
  5
31
102
{ACAD_REACTORS
330
2A
102
}
330
2A
100
AcDbVisualStyle
  2
3D Hidden
 70
     6
 71
     1
 72
     2
 73
     2
 90
        0
 40
-0.6
 41
-30.0
 62
     5
 63
     7
421
 16777215
 74
     2
 91
        2
 64
     7
 65
   257
 75
     2
175
     1
 42
40.0
 92
        0
 66
   257
 43
1.0
 76
     1
 77
     6
 78
     2
 67
     7
 79
     3
170
     0
171
     0
290
     0
174
     0
 93
        1
 44
0.0
173
     0
291
     0
 45
0.0
1001
ACAD
1000
AcDbSavedByObjectVersion
1070
     0
  0
VISUALSTYLE
  5
30
102
{ACAD_REACTORS
330
2A
102
}
330
2A
100
AcDbVisualStyle
  2
3dWireframe
 70
     5
 71
     0
 72
     2
 73
     0
 90
        0
 40
-0.6
 41
-30.0
 62
     5
 63
     7
421
 16777215
 74
     1
 91
        4
 64
     7
 65
   257
 75
     1
175
     1
 42
1.0
 92
        0
 66
   257
 43
1.0
 76
     1
 77
     6
 78
     2
 67
     7
 79
     5
170
     0
171
     0
290
     0
174
     0
 93
        1
 44
0.0
173
     0
291
     0
 45
0.0
1001
ACAD
1000
AcDbSavedByObjectVersion
1070
     0
  0
VISUALSTYLE
  5
32
102
{ACAD_REACTORS
330
2A
102
}
330
2A
100
AcDbVisualStyle
  2
Basic
 70
     7
 71
     1
 72
     0
 73
     1
 90
        0
 40
-0.6
 41
-30.0
 62
     5
 63
     7
421
 16777215
 74
     0
 91
        4
 64
     7
 65
   257
 75
     1
175
     1
 42
1.0
 92
        8
 66
     7
 43
1.0
 76
     1
 77
     6
 78
     2
 67
     7
 79
     5
170
     0
171
     0
290
     0
174
     0
 93
        1
 44
0.0
173
     0
291
     1
 45
0.0
1001
ACAD
1000
AcDbSavedByObjectVersion
1070
     0
  0
VISUALSTYLE
  5
36
102
{ACAD_REACTORS
330
2A
102
}
330
2A
100
AcDbVisualStyle
  2
Brighten
 70
    12
 71
     2
 72
     2
 73
     0
 90
        0
 40
-0.6
 41
-30.0
 62
     5
 63
     7
421
 16777215
 74
     1
 91
        4
 64
     7
 65
   257
 75
     1
175
     1
 42
1.0
 92
        8
 66
     7
 43
1.0
 76
     1
 77
     6
 78
     2
 67
     7
 79
     5
170
     0
171
     0
290
     0
174
     0
 93
        1
 44
50.0
173
     0
291
     1
 45
0.0
1001
ACAD
1000
AcDbSavedByObjectVersion
1070
     0
  0
VISUALSTYLE
  5
3A
102
{ACAD_REACTORS
330
2A
102
}
330
2A
100
AcDbVisualStyle
  2
ColorChange
 70
    16
 71
     2
 72
     2
 73
     3
 90
        0
 40
-0.6
 41
-30.0
 62
     5
 63
     8
421
  8421504
 74
     1
 91
        4
 64
     7
 65
   257
 75
     1
175
     1
 42
1.0
 92
        8
 66
     8
424
  8421504
 43
1.0
 76
     1
 77
     6
 78
     2
 67
     7
 79
     5
170
     0
171
     0
290
     0
174
     0
 93
        1
 44
0.0
173
     0
291
     1
 45
0.0
1001
ACAD
1000
AcDbSavedByObjectVersion
1070
     0
  0
VISUALSTYLE
  5
34
102
{ACAD_REACTORS
330
2A
102
}
330
2A
100
AcDbVisualStyle
  2
Conceptual
 70
     9
 71
     3
 72
     2
 73
     0
 90
        0
 40
-0.6
 41
-30.0
 62
     5
 63
     7
421
 16777215
 74
     2
 91
        2
 64
     7
 65
   257
 75
     1
175
     1
 42
40.0
 92
        8
 66
     7
 43
1.0
 76
     1
 77
     6
 78
     2
 67
     7
 79
     3
170
     0
171
     0
290
     0
174
     0
 93
        1
 44
0.0
173
     0
291
     0
 45
0.0
1001
ACAD
1000
AcDbSavedByObjectVersion
1070
     0
  0
VISUALSTYLE
  5
35
102
{ACAD_REACTORS
330
2A
102
}
330
2A
100
AcDbVisualStyle
  2
Dim
 70
    11
 71
     2
 72
     2
 73
     0
 90
        0
 40
-0.6
 41
-30.0
 62
     5
 63
     7
421
 16777215
 74
     1
 91
        4
 64
     7
 65
   257
 75
     1
175
     1
 42
1.0
 92
        8
 66
     7
 43
1.0
 76
     1
 77
     6
 78
     2
 67
     7
 79
     5
170
     0
171
     0
290
     0
174
     0
 93
        1
 44
-50.0
173
     0
291
     1
 45
0.0
1001
ACAD
1000
AcDbSavedByObjectVersion
1070
     0
  0
VISUALSTYLE
  5
39
102
{ACAD_REACTORS
330
2A
102
}
330
2A
100
AcDbVisualStyle
  2
Facepattern
 70
    15
 71
     2
 72
     2
 73
     0
 90
        0
 40
-0.6
 41
-30.0
 62
     5
 63
     7
421
 16777215
 74
     1
 91
        4
 64
     7
 65
   257
 75
     1
175
     1
 42
1.0
 92
        8
 66
     7
 43
1.0
 76
     1
 77
     6
 78
     2
 67
     7
 79
     5
170
     0
171
     0
290
     0
174
     0
 93
        1
 44
0.0
173
     0
291
     1
 45
0.0
1001
ACAD
1000
AcDbSavedByObjectVersion
1070
     0
  0
VISUALSTYLE
  5
2B
102
{ACAD_REACTORS
330
2A
102
}
330
2A
100
AcDbVisualStyle
  2
Flat
 70
     0
 71
     2
 72
     1
 73
     1
 90
        2
 40
-0.6
 41
30.0
 62
     5
 63
     7
421
 16777215
 74
     0
 91
        4
 64
     7
 65
   257
 75
     1
175
     1
 42
1.0
 92
        8
 66
     7
 43
1.0
 76
     1
 77
     6
 78
     2
 67
     7
 79
     5
170
     0
171
     0
290
     0
174
     0
 93
       13
 44
0.0
173
     0
291
     1
 45
0.0
1001
ACAD
1000
AcDbSavedByObjectVersion
1070
     0
  0
VISUALSTYLE
  5
2C
102
{ACAD_REACTORS
330
2A
102
}
330
2A
100
AcDbVisualStyle
  2
FlatWithEdges
 70
     1
 71
     2
 72
     1
 73
     1
 90
        2
 40
-0.6
 41
30.0
 62
     5
 63
     7
421
 16777215
 74
     1
 91
        4
 64
     7
 65
   257
 75
     1
175
     1
 42
1.0
 92
        0
 66
   257
 43
1.0
 76
     1
 77
     6
 78
     2
 67
     7
 79
     5
170
     0
171
     0
290
     0
174
     0
 93
       13
 44
0.0
173
     0
291
     1
 45
0.0
1001
ACAD
1000
AcDbSavedByObjectVersion
1070
     0
  0
VISUALSTYLE
  5
2D
102
{ACAD_REACTORS
330
2A
102
}
330
2A
100
AcDbVisualStyle
  2
Gouraud
 70
     2
 71
     2
 72
     2
 73
     1
 90
        2
 40
-0.6
 41
30.0
 62
     5
 63
     7
421
 16777215
 74
     0
 91
        4
 64
     7
 65
   257
 75
     1
175
     1
 42
1.0
 92
        0
 66
     7
 43
1.0
 76
     1
 77
     6
 78
     2
 67
     7
 79
     5
170
     0
171
     0
290
     0
174
     0
 93
       13
 44
0.0
173
     0
291
     1
 45
0.0
1001
ACAD
1000
AcDbSavedByObjectVersion
1070
     0
  0
VISUALSTYLE
  5
2E
102
{ACAD_REACTORS
330
2A
102
}
330
2A
100
AcDbVisualStyle
  2
GouraudWithEdges
 70
     3
 71
     2
 72
     2
 73
     1
 90
        2
 40
-0.6
 41
30.0
 62
     5
 63
     7
421
 16777215
 74
     1
 91
        4
 64
     7
 65
   257
 75
     1
175
     1
 42
1.0
 92
        0
 66
   257
 43
1.0
 76
     1
 77
     6
 78
     2
 67
     7
 79
     5
170
     0
171
     0
290
     0
174
     0
 93
       13
 44
0.0
173
     0
291
     1
 45
0.0
1001
ACAD
1000
AcDbSavedByObjectVersion
1070
     0
  0
VISUALSTYLE
  5
38
102
{ACAD_REACTORS
330
2A
102
}
330
2A
100
AcDbVisualStyle
  2
Linepattern
 70
    14
 71
     2
 72
     2
 73
     0
 90
        0
 40
-0.6
 41
-30.0
 62
     5
 63
     7
421
 16777215
 74
     1
 91
        4
 64
     7
 65
   257
 75
     7
175
     7
 42
1.0
 92
        8
 66
     7
 43
1.0
 76
     1
 77
     6
 78
     2
 67
     7
 79
     5
170
     0
171
     0
290
     0
174
     0
 93
        1
 44
0.0
173
     0
291
     1
 45
0.0
1001
ACAD
1000
AcDbSavedByObjectVersion
1070
     0
  0
VISUALSTYLE
  5
33
102
{ACAD_REACTORS
330
2A
102
}
330
2A
100
AcDbVisualStyle
  2
Realistic
 70
     8
 71
     2
 72
     2
 73
     0
 90
        0
 40
-0.6
 41
-30.0
 62
     5
 63
     7
421
 16777215
 74
     1
 91
        0
 64
     7
 65
   257
 75
     1
175
     1
 42
1.0
 92
        8
 66
     8
424
  7895160
 43
1.0
 76
     1
 77
     6
 78
     2
 67
     7
 79
     5
170
     0
171
     0
290
     0
174
     0
 93
       13
 44
0.0
173
     0
291
     0
 45
0.0
1001
ACAD
1000
AcDbSavedByObjectVersion
1070
     0
  0
VISUALSTYLE
  5
37
102
{ACAD_REACTORS
330
2A
102
}
330
2A
100
AcDbVisualStyle
  2
Thicken
 70
    13
 71
     2
 72
     2
 73
     0
 90
        0
 40
-0.6
 41
-30.0
 62
     5
 63
     7
421
 16777215
 74
     1
 91
        4
 64
     7
 65
   257
 75
     1
175
     1
 42
1.0
 92
       12
 66
     7
 43
1.0
 76
     1
 77
     6
 78
     2
 67
     7
 79
     5
170
     0
171
     0
290
     0
174
     0
 93
        1
 44
0.0
173
     0
291
     1
 45
0.0
1001
ACAD
1000
AcDbSavedByObjectVersion
1070
     0
  0
ENDSEC
  0
EOF
