  0
SECTION
  2
HEADER
  9
$ACADVER
  1
AC1015
  9
$ACADMAINTVER
 70
    20
  9
$DWGCODEPAGE
  3
ANSI_1252
  9
$INSBASE
 10
0.0
 20
0.0
 30
0.0
  9
$EXTMIN
 10
-318.5591312285618
 20
-300.0001478722642
 30
-0.000000000000134
  9
$EXTMAX
 10
2324.211128262397
 20
1592.537052452408
 30
0.0
  9
$LIMMIN
 10
0.0
 20
0.0
  9
$LIMMAX
 10
12.0
 20
9.0
  9
$ORTHOMODE
 70
     0
  9
$REGENMODE
 70
     1
  9
$FILLMODE
 70
     1
  9
$QTEXTMODE
 70
     0
  9
$MIRRTEXT
 70
     1
  9
$LTSCALE
 40
1.0
  9
$ATTMODE
 70
     1
  9
$TEXTSIZE
 40
0.2
  9
$TRACEWID
 40
0.05
  9
$TEXTSTYLE
  7
Standard
  9
$CLAYER
  8
Miura_Table_9553-01_2D
  9
$CELTYPE
  6
ByLayer
  9
$CECOLOR
 62
   256
  9
$CELTSCALE
 40
1.0
  9
$DISPSILH
 70
     0
  9
$DIMSCALE
 40
1.0
  9
$DIMASZ
 40
0.18
  9
$DIMEXO
 40
0.0625
  9
$DIMDLI
 40
0.38
  9
$DIMRND
 40
0.0
  9
$DIMDLE
 40
0.0
  9
$DIMEXE
 40
0.18
  9
$DIMTP
 40
0.0
  9
$DIMTM
 40
0.0
  9
$DIMTXT
 40
0.18
  9
$DIMCEN
 40
0.09
  9
$DIMTSZ
 40
0.0
  9
$DIMTOL
 70
     0
  9
$DIMLIM
 70
     0
  9
$DIMTIH
 70
     1
  9
$DIMTOH
 70
     1
  9
$DIMSE1
 70
     0
  9
$DIMSE2
 70
     0
  9
$DIMTAD
 70
     0
  9
$DIMZIN
 70
     0
  9
$DIMBLK
  1

  9
$DIMASO
 70
     1
  9
$DIMSHO
 70
     1
  9
$DIMPOST
  1

  9
$DIMAPOST
  1

  9
$DIMALT
 70
     0
  9
$DIMALTD
 70
     2
  9
$DIMALTF
 40
25.4
  9
$DIMLFAC
 40
1.0
  9
$DIMTOFL
 70
     0
  9
$DIMTVP
 40
0.0
  9
$DIMTIX
 70
     0
  9
$DIMSOXD
 70
     0
  9
$DIMSAH
 70
     0
  9
$DIMBLK1
  1

  9
$DIMBLK2
  1

  9
$DIMSTYLE
  2
Standard
  9
$DIMCLRD
 70
     0
  9
$DIMCLRE
 70
     0
  9
$DIMCLRT
 70
     0
  9
$DIMTFAC
 40
1.0
  9
$DIMGAP
 40
0.09
  9
$DIMJUST
 70
     0
  9
$DIMSD1
 70
     0
  9
$DIMSD2
 70
     0
  9
$DIMTOLJ
 70
     1
  9
$DIMTZIN
 70
     0
  9
$DIMALTZ
 70
     0
  9
$DIMALTTZ
 70
     0
  9
$DIMUPT
 70
     0
  9
$DIMDEC
 70
     4
  9
$DIMTDEC
 70
     4
  9
$DIMALTU
 70
     2
  9
$DIMALTTD
 70
     2
  9
$DIMTXSTY
  7
Standard
  9
$DIMAUNIT
 70
     0
  9
$DIMADEC
 70
     0
  9
$DIMALTRND
 40
0.0
  9
$DIMAZIN
 70
     0
  9
$DIMDSEP
 70
    46
  9
$DIMATFIT
 70
     3
  9
$DIMFRAC
 70
     0
  9
$DIMLDRBLK
  1

  9
$DIMLUNIT
 70
     2
  9
$DIMLWD
 70
    -2
  9
$DIMLWE
 70
    -2
  9
$DIMTMOVE
 70
     2
  9
$LUNITS
 70
     2
  9
$LUPREC
 70
     3
  9
$SKETCHINC
 40
0.1
  9
$FILLETRAD
 40
0.5
  9
$AUNITS
 70
     0
  9
$AUPREC
 70
     0
  9
$MENU
  1
.
  9
$ELEVATION
 40
0.0
  9
$PELEVATION
 40
0.0
  9
$THICKNESS
 40
0.0
  9
$LIMCHECK
 70
     0
  9
$CHAMFERA
 40
0.5
  9
$CHAMFERB
 40
0.5
  9
$CHAMFERC
 40
1.0
  9
$CHAMFERD
 40
0.0
  9
$SKPOLY
 70
     0
  9
$TDCREATE
 40
2457213.699606922
  9
$TDUCREATE
 40
2457213.616273588
  9
$TDUPDATE
 40
2457213.701572859
  9
$TDUUPDATE
 40
2457213.618239526
  9
$TDINDWG
 40
0.0001383681
  9
$TDUSRTIMER
 40
0.0001383681
  9
$USRTIMER
 70
     1
  9
$ANGBASE
 50
0.0
  9
$ANGDIR
 70
     0
  9
$PDMODE
 70
     0
  9
$PDSIZE
 40
0.0
  9
$PLINEWID
 40
0.0
  9
$SPLFRAME
 70
     0
  9
$SPLINETYPE
 70
     6
  9
$SPLINESEGS
 70
     8
  9
$HANDSEED
  5
186
  9
$SURFTAB1
 70
     6
  9
$SURFTAB2
 70
     6
  9
$SURFTYPE
 70
     6
  9
$SURFU
 70
     6
  9
$SURFV
 70
     6
  9
$UCSBASE
  2

  9
$UCSNAME
  2

  9
$UCSORG
 10
0.0
 20
0.0
 30
0.0
  9
$UCSXDIR
 10
1.0
 20
0.0
 30
0.0
  9
$UCSYDIR
 10
0.0
 20
1.0
 30
0.0
  9
$UCSORTHOREF
  2

  9
$UCSORTHOVIEW
 70
     0
  9
$UCSORGTOP
 10
0.0
 20
0.0
 30
0.0
  9
$UCSORGBOTTOM
 10
0.0
 20
0.0
 30
0.0
  9
$UCSORGLEFT
 10
0.0
 20
0.0
 30
0.0
  9
$UCSORGRIGHT
 10
0.0
 20
0.0
 30
0.0
  9
$UCSORGFRONT
 10
0.0
 20
0.0
 30
0.0
  9
$UCSORGBACK
 10
0.0
 20
0.0
 30
0.0
  9
$PUCSBASE
  2

  9
$PUCSNAME
  2

  9
$PUCSORG
 10
0.0
 20
0.0
 30
0.0
  9
$PUCSXDIR
 10
1.0
 20
0.0
 30
0.0
  9
$PUCSYDIR
 10
0.0
 20
1.0
 30
0.0
  9
$PUCSORTHOREF
  2

  9
$PUCSORTHOVIEW
 70
     0
  9
$PUCSORGTOP
 10
0.0
 20
0.0
 30
0.0
  9
$PUCSORGBOTTOM
 10
0.0
 20
0.0
 30
0.0
  9
$PUCSORGLEFT
 10
0.0
 20
0.0
 30
0.0
  9
$PUCSORGRIGHT
 10
0.0
 20
0.0
 30
0.0
  9
$PUCSORGFRONT
 10
0.0
 20
0.0
 30
0.0
  9
$PUCSORGBACK
 10
0.0
 20
0.0
 30
0.0
  9
$USERI1
 70
     0
  9
$USERI2
 70
     0
  9
$USERI3
 70
     0
  9
$USERI4
 70
     0
  9
$USERI5
 70
     0
  9
$USERR1
 40
0.0
  9
$USERR2
 40
0.0
  9
$USERR3
 40
0.0
  9
$USERR4
 40
0.0
  9
$USERR5
 40
0.0
  9
$WORLDVIEW
 70
     1
  9
$SHADEDGE
 70
     3
  9
$SHADEDIF
 70
    70
  9
$TILEMODE
 70
     1
  9
$MAXACTVP
 70
    64
  9
$PINSBASE
 10
0.0
 20
0.0
 30
0.0
  9
$PLIMCHECK
 70
     0
  9
$PEXTMIN
 10
1.000000000000000E+20
 20
1.000000000000000E+20
 30
1.000000000000000E+20
  9
$PEXTMAX
 10
-1.000000000000000E+20
 20
-1.000000000000000E+20
 30
-1.000000000000000E+20
  9
$PLIMMIN
 10
0.0
 20
0.0
  9
$PLIMMAX
 10
12.0
 20
9.0
  9
$UNITMODE
 70
     0
  9
$VISRETAIN
 70
     1
  9
$PLINEGEN
 70
     0
  9
$PSLTSCALE
 70
     1
  9
$TREEDEPTH
 70
  3020
  9
$CMLSTYLE
  2
Standard
  9
$CMLJUST
 70
     0
  9
$CMLSCALE
 40
1.0
  9
$PROXYGRAPHICS
 70
     1
  9
$MEASUREMENT
 70
     0
  9
$CELWEIGHT
370
    -1
  9
$ENDCAPS
280
     0
  9
$JOINSTYLE
280
     0
  9
$LWDISPLAY
290
     0
  9
$INSUNITS
 70
     4
  9
$HYPERLINKBASE
  1

  9
$STYLESHEET
  1

  9
$XEDIT
290
     1
  9
$CEPSNTYPE
380
     0
  9
$PSTYLEMODE
290
     1
  9
$FINGERPRINTGUID
  2
{0AAB5528-2D5B-43C2-945F-26E909B698CE}
  9
$VERSIONGUID
  2
{FAEB1C32-E019-11D5-929B-00C0DF256EC4}
  9
$EXTNAMES
290
     1
  9
$PSVPSCALE
 40
0.0
  9
$OLESTARTUP
290
     0
  0
ENDSEC
  0
SECTION
  2
CLASSES
  0
CLASS
  1
ACDBDICTIONARYWDFLT
  2
AcDbDictionaryWithDefault
  3
ObjectDBX Classes
 90
        0
280
     0
281
     0
  0
CLASS
  1
VISUALSTYLE
  2
AcDbVisualStyle
  3
ObjectDBX Classes
 90
     4095
280
     0
281
     0
  0
CLASS
  1
MATERIAL
  2
AcDbMaterial
  3
ObjectDBX Classes
 90
     1024
280
     0
281
     0
  0
CLASS
  1
TABLESTYLE
  2
AcDbTableStyle
  3
ObjectDBX Classes
 90
     4095
280
     0
281
     0
  0
CLASS
  1
DICTIONARYVAR
  2
AcDbDictionaryVar
  3
ObjectDBX Classes
 90
        0
280
     0
281
     0
  0
CLASS
  1
ACDBPLACEHOLDER
  2
AcDbPlaceHolder
  3
ObjectDBX Classes
 90
        0
280
     0
281
     0
  0
CLASS
  1
LAYOUT
  2
AcDbLayout
  3
ObjectDBX Classes
 90
        0
280
     0
281
     0
  0
ENDSEC
  0
SECTION
  2
TABLES
  0
TABLE
  2
VPORT
  5
8
330
0
100
AcDbSymbolTable
 70
     1
  0
VPORT
  5
29
330
8
100
AcDbSymbolTableRecord
100
AcDbViewportTableRecord
  2
*Active
 70
     0
 10
0.0
 20
0.0
 11
1.0
 21
1.0
 12
1708.914242201157
 22
646.2684522900718
 13
0.0
 23
0.0
 14
0.5
 24
0.5
 15
0.5
 25
0.5
 16
0.0
 26
0.0
 36
1.0
 17
0.0
 27
0.0
 37
0.0
 40
1930.46967797956
 41
2.128074639525021
 42
50.0
 43
0.0
 44
0.0
 50
0.0
 51
0.0
 71
     0
 72
   100
 73
     1
 74
     3
 75
     0
 76
     0
 77
     0
 78
     0
281
     0
 65
     1
110
0.0
120
0.0
130
0.0
111
1.0
121
0.0
131
0.0
112
0.0
122
1.0
132
0.0
 79
     0
146
0.0
  0
ENDTAB
  0
TABLE
  2
LTYPE
  5
5
330
0
100
AcDbSymbolTable
 70
     1
  0
LTYPE
  5
14
330
5
100
AcDbSymbolTableRecord
100
AcDbLinetypeTableRecord
  2
ByBlock
 70
     0
  3

 72
    65
 73
     0
 40
0.0
  0
LTYPE
  5
15
330
5
100
AcDbSymbolTableRecord
100
AcDbLinetypeTableRecord
  2
ByLayer
 70
     0
  3

 72
    65
 73
     0
 40
0.0
  0
LTYPE
  5
16
330
5
100
AcDbSymbolTableRecord
100
AcDbLinetypeTableRecord
  2
Continuous
 70
     0
  3
Solid line
 72
    65
 73
     0
 40
0.0
  0
ENDTAB
  0
TABLE
  2
LAYER
  5
2
330
0
100
AcDbSymbolTable
 70
     2
  0
LAYER
  5
10
330
2
100
AcDbSymbolTableRecord
100
AcDbLayerTableRecord
  2
0
 70
     0
 62
     7
  6
Continuous
370
    -3
390
F
  0
LAYER
  5
3B
330
2
100
AcDbSymbolTableRecord
100
AcDbLayerTableRecord
  2
Miura_Table_9553-01_2D
 70
     0
 62
     7
  6
Continuous
370
    -3
390
F
  0
ENDTAB
  0
TABLE
  2
STYLE
  5
3
330
0
100
AcDbSymbolTable
 70
     1
  0
STYLE
  5
11
330
3
100
AcDbSymbolTableRecord
100
AcDbTextStyleTableRecord
  2
Standard
 70
     0
 40
0.0
 41
1.0
 50
0.0
 71
     0
 42
0.2
  3
txt
  4

  0
ENDTAB
  0
TABLE
  2
VIEW
  5
6
330
0
100
AcDbSymbolTable
 70
     0
  0
ENDTAB
  0
TABLE
  2
UCS
  5
7
330
0
100
AcDbSymbolTable
 70
     0
  0
ENDTAB
  0
TABLE
  2
APPID
  5
9
330
0
100
AcDbSymbolTable
 70
     1
  0
APPID
  5
12
330
9
100
AcDbSymbolTableRecord
100
AcDbRegAppTableRecord
  2
ACAD
 70
     0
  0
ENDTAB
  0
TABLE
  2
DIMSTYLE
  5
A
330
0
100
AcDbSymbolTable
 70
     1
100
AcDbDimStyleTable
 71
     0
  0
DIMSTYLE
105
27
330
A
100
AcDbSymbolTableRecord
100
AcDbDimStyleTableRecord
  2
Standard
 70
     0
340
11
  0
ENDTAB
  0
TABLE
  2
BLOCK_RECORD
  5
1
330
0
100
AcDbSymbolTable
 70
     1
  0
BLOCK_RECORD
  5
1F
330
1
100
AcDbSymbolTableRecord
100
AcDbBlockTableRecord
  2
*Model_Space
340
22
  0
BLOCK_RECORD
  5
1B
330
1
100
AcDbSymbolTableRecord
100
AcDbBlockTableRecord
  2
*Paper_Space
340
1E
  0
BLOCK_RECORD
  5
23
330
1
100
AcDbSymbolTableRecord
100
AcDbBlockTableRecord
  2
*Paper_Space0
340
26
  0
ENDTAB
  0
ENDSEC
  0
SECTION
  2
BLOCKS
  0
BLOCK
  5
20
330
1F
100
AcDbEntity
  8
0
100
AcDbBlockBegin
  2
*Model_Space
 70
     0
 10
0.0
 20
0.0
 30
0.0
  3
*Model_Space
  1

  0
ENDBLK
  5
21
330
1F
100
AcDbEntity
  8
0
100
AcDbBlockEnd
  0
BLOCK
  5
1C
330
1B
100
AcDbEntity
 67
     1
  8
0
100
AcDbBlockBegin
  2
*Paper_Space
 70
     0
 10
0.0
 20
0.0
 30
0.0
  3
*Paper_Space
  1

  0
ENDBLK
  5
1D
330
1B
100
AcDbEntity
 67
     1
  8
0
100
AcDbBlockEnd
  0
BLOCK
  5
24
330
23
100
AcDbEntity
 67
     1
  8
0
100
AcDbBlockBegin
  2
*Paper_Space0
 70
     0
 10
0.0
 20
0.0
 30
0.0
  3
*Paper_Space0
  1

  0
ENDBLK
  5
25
330
23
100
AcDbEntity
 67
     1
  8
0
100
AcDbBlockEnd
  0
ENDSEC
  0
SECTION
  2
ENTITIES
  0
SPLINE
  5
3C
330
1F
100
AcDbEntity
  8
Miura_Table_9553-01_2D
100
AcDbSpline
210
0.0
220
0.0
230
1.0
 70
    24
 71
     2
 72
     6
 73
     3
 74
     0
 42
0.0000000001
 43
0.0000000001
 40
0.0
 40
0.0
 40
0.0
 40
294.396186561671
 40
294.396186561671
 40
294.396186561671
 10
2300.198408721408
 20
1573.847447164754
 30
-0.000000000000134
 10
2153.000315440573
 20
1573.847447164754
 30
-0.000000000000134
 10
2005.802222159737
 20
1573.847447164754
 30
-0.000000000000134
  0
SPLINE
  5
3D
330
1F
100
AcDbEntity
  8
Miura_Table_9553-01_2D
100
AcDbSpline
210
0.0
220
0.0
230
1.0
 70
    24
 71
     2
 72
     6
 73
     3
 74
     0
 42
0.0000000001
 43
0.0000000001
 40
0.0
 40
0.0
 40
0.0
 40
294.395757265368
 40
294.395757265368
 40
294.395757265368
 10
2005.802222159737
 20
1573.847447164754
 30
-0.000000000000134
 10
1858.604343527053
 20
1573.847447164754
 30
-0.000000000000134
 10
1711.406464894369
 20
1573.847447164754
 30
-0.000000000000134
  0
SPLINE
  5
3E
330
1F
100
AcDbEntity
  8
Miura_Table_9553-01_2D
100
AcDbSpline
210
0.0
220
0.0
230
1.0
 70
    24
 71
     2
 72
     6
 73
     3
 74
     0
 42
0.0000000001
 43
0.0000000001
 40
0.0
 40
0.0
 40
0.0
 40
268.6965254678749
 40
268.6965254678749
 40
268.6965254678749
 10
2005.802329483813
 20
1592.536873002906
 30
-0.000000000000134
 10
2140.150595067759
 20
1592.536873002906
 30
-0.000000000000134
 10
2274.498860651705
 20
1592.536873002905
 30
-0.000000000000134
  0
SPLINE
  5
3F
330
1F
100
AcDbEntity
  8
Miura_Table_9553-01_2D
100
AcDbSpline
210
0.0
220
0.0
230
1.0
 70
     8
 71
     3
 72
    16
 73
    12
 74
     0
 42
0.0000000001
 43
0.0000000001
 40
0.0
 40
0.0
 40
0.0
 40
0.0
 40
4.392532133180933
 40
9.103232288622523
 40
14.02234326407727
 40
19.04528694088155
 40
24.05681992867819
 40
28.92208547605299
 40
33.53958554338433
 40
35.72768669358445
 40
37.82776312511874
 40
37.82776312511874
 40
37.82776312511874
 40
37.82776312511874
 10
2274.498860651705
 20
1592.536873002905
 30
-0.000000000000134
 10
2275.963384935349
 20
1592.53654577973
 30
-0.000000000000134
 10
2278.994832062957
 20
1592.267819137562
 30
-0.000000000000134
 10
2283.553135762715
 20
1591.185879967892
 30
-0.000000000000134
 10
2288.129737219302
 20
1589.453468695949
 30
-0.000000000000134
 10
2292.55301316455
 20
1587.136582354034
 30
-0.000000000000134
 10
2296.656304223392
 20
1584.322515710562
 30
-0.000000000000134
 10
2300.283991275338
 20
1581.117047994348
 30
-0.000000000000134
 10
2302.839228810414
 20
1578.170649388699
 30
-0.000000000000134
 10
2304.514211656843
 20
1575.716327710686
 30
-0.000000000000134
 10
2305.219492503285
 20
1574.471794522038
 30
-0.000000000000134
 10
2305.53649095601
 20
1573.847547566859
 30
-0.000000000000134
  0
SPLINE
  5
40
330
1F
100
AcDbEntity
  8
Miura_Table_9553-01_2D
100
AcDbSpline
210
0.0
220
0.0
230
1.0
 70
    12
 71
     2
 72
     8
 73
     5
 74
     0
 42
0.0000000001
 43
0.0000000001
 40
0.0
 40
0.0
 40
0.0
 40
2.319453819213341
 40
2.319453819213341
 40
4.638907638426683
 40
4.638907638426683
 40
4.638907638426683
 10
2305.53649095601
 20
1573.847547566859
 30
-0.000000000000134
 41
1.0
 10
2306.137633550717
 20
1572.723539312814
 30
-0.000000000000134
 41
0.8700788288309112
 10
2305.482364465349
 20
1571.630206272239
 30
-0.000000000000134
 41
1.0
 10
2304.827095379983
 20
1570.536873231664
 30
-0.000000000000134
 41
0.8700788288309112
 10
2303.552436715143
 20
1570.536872972432
 30
-0.000000000000134
 41
1.0
  0
SPLINE
  5
41
330
1F
100
AcDbEntity
  8
Miura_Table_9553-01_2D
100
AcDbSpline
210
0.0
220
0.0
230
1.0
 70
    24
 71
     2
 72
     6
 73
     3
 74
     0
 42
0.0000000001
 43
0.0000000001
 40
0.0
 40
0.0
 40
0.0
 40
297.7499999072541
 40
297.7499999072541
 40
297.7499999072541
 10
2303.552436715143
 20
1570.536872972432
 30
-0.000000000000134
 10
2154.677436761515
 20
1570.536872972432
 30
-0.000000000000134
 10
2005.802436807888
 20
1570.536872972432
 30
-0.000000000000134
  0
SPLINE
  5
42
330
1F
100
AcDbEntity
  8
Miura_Table_9553-01_2D
100
AcDbSpline
210
0.0
220
0.0
230
1.0
 70
    24
 71
     2
 72
     6
 73
     3
 74
     0
 42
0.0000000001
 43
0.0000000001
 40
0.0
 40
0.0
 40
0.0
 40
297.7499999073891
 40
297.7499999073891
 40
297.7499999073891
 10
2005.802436807888
 20
1570.536872972432
 30
-0.000000000000134
 10
1856.927436854194
 20
1570.536872972432
 30
-0.000000000000134
 10
1708.052436900499
 20
1570.536872972432
 30
-0.000000000000134
  0
SPLINE
  5
43
330
1F
100
AcDbEntity
  8
Miura_Table_9553-01_2D
100
AcDbSpline
210
0.0
220
0.0
230
1.0
 70
    12
 71
     2
 72
     8
 73
     5
 74
     0
 42
0.0000000001
 43
0.0000000001
 40
0.0
 40
0.0
 40
0.0
 40
2.31945423591472
 40
2.31945423591472
 40
4.638908471829438
 40
4.638908471829438
 40
4.638908471829438
 10
1708.052436900499
 20
1570.536872972432
 30
-0.000000000000134
 41
1.0
 10
1706.777777885708
 20
1570.536872613934
 30
-0.000000000000134
 41
0.8700787093849605
 10
1706.122508620472
 20
1571.630205954699
 30
-0.000000000000134
 41
1.0
 10
1705.467239355236
 20
1572.723539295463
 30
-0.000000000000134
 41
0.8700787093849605
 10
1706.068382659767
 20
1573.847547566859
 30
-0.000000000000134
 41
1.0
  0
SPLINE
  5
44
330
1F
100
AcDbEntity
  8
Miura_Table_9553-01_2D
100
AcDbSpline
210
0.0
220
0.0
230
1.0
 70
     8
 71
     3
 72
    16
 73
    12
 74
     0
 42
0.0000000001
 43
0.0000000001
 40
0.0
 40
0.0
 40
0.0
 40
0.0
 40
2.10001170666425
 40
4.288177581580105
 40
8.905661522679123
 40
13.77094318508053
 40
18.78247617287734
 40
23.81811150027521
 40
28.73719774104259
 40
33.43523100152121
 40
37.82776313447252
 40
37.82776313447252
 40
37.82776313447252
 40
37.82776313447252
 10
1706.068382659767
 20
1573.847547566859
 30
-0.000000000000134
 10
1706.385368297677
 20
1574.471775408902
 30
-0.000000000000134
 10
1707.090655922759
 20
1575.716309188859
 30
-0.000000000000134
 10
1708.765618056515
 20
1578.170628907239
 30
-0.000000000000134
 10
1711.320895764196
 20
1581.117044353989
 30
-0.000000000000134
 10
1714.94856277151
 20
1584.322509911812
 30
-0.000000000000134
 10
1719.055356690174
 20
1587.138982056332
 30
-0.000000000000134
 10
1723.482762797191
 20
1589.457183693647
 30
-0.000000000000134
 10
1728.059921830667
 20
1591.188162440196
 30
-0.000000000000134
 10
1732.614262675884
 20
1592.2681938909
 30
-0.000000000000134
 10
1735.641487544343
 20
1592.536545225586
 30
-0.000000000000134
 10
1737.106012964073
 20
1592.536873002905
 30
-0.000000000000134
  0
SPLINE
  5
45
330
1F
100
AcDbEntity
  8
Miura_Table_9553-01_2D
100
AcDbSpline
210
0.0
220
0.0
230
1.0
 70
    28
 71
     2
 72
     6
 73
     3
 74
     0
 42
0.0000000001
 43
0.0000000001
 40
4.71238898038469
 40
4.71238898038469
 40
4.71238898038469
 40
6.283185307179585
 40
6.283185307179585
 40
6.283185307179585
 10
1737.106012964073
 20
1592.536873002905
 30
-0.000000000000134
 41
0.9999998345539975
 10
1737.106018663287
 20
1592.536873002905
 30
-0.000000000000134
 41
0.7071068639095721
 10
2005.802329483813
 20
1592.536873002906
 30
-0.000000000000134
 41
1.0
  0
SPLINE
  5
46
330
1F
100
AcDbEntity
  8
Miura_Table_9553-01_2D
100
AcDbSpline
210
0.0
220
0.0
230
1.0
 70
    24
 71
     2
 72
     6
 73
     3
 74
     0
 42
0.0000000001
 43
0.0000000001
 40
0.0
 40
0.0
 40
0.0
 40
588.7919438270393
 40
588.7919438270393
 40
588.7919438270393
 10
294.3954280110497
 20
1573.847626614256
 30
0.0
 10
-0.0005439024698717
 20
1573.847626614256
 30
0.0
 10
-294.3965158159895
 20
1573.847626614256
 30
0.0
  0
SPLINE
  5
47
330
1F
100
AcDbEntity
  8
Miura_Table_9553-01_2D
100
AcDbSpline
210
0.0
220
0.0
230
1.0
 70
    12
 71
     2
 72
     6
 73
     3
 74
     0
 42
0.0000000001
 43
0.0000000001
 40
0.0
 40
0.0
 40
0.0
 40
0.0043175906831517
 40
0.0043175906831517
 40
0.0043175906831517
 10
-297.6841595249125
 20
1570.538031507164
 30
0.0
 41
1.0
 10
-297.6820744915478
 20
1570.538093462835
 30
0.0
 41
0.9999996406726175
 10
-297.6799722741032
 20
1570.53760794463
 30
0.0
 41
0.9999999757511147
  0
SPLINE
  5
48
330
1F
100
AcDbEntity
  8
Miura_Table_9553-01_2D
100
AcDbSpline
210
0.0
220
0.0
230
1.0
 70
    24
 71
     2
 72
     6
 73
     3
 74
     0
 42
0.0000000001
 43
0.0000000001
 40
0.0
 40
0.0
 40
0.0
 40
0.0189326577899465
 40
0.0189326577899465
 40
0.0189326577899465
 10
-297.6799722741032
 20
1570.53760794463
 30
0.0
 10
-297.6705701063547
 20
1570.537330183281
 30
0.0
 10
-297.661167938606
 20
1570.537052421933
 30
0.0
  0
SPLINE
  5
49
330
1F
100
AcDbEntity
  8
Miura_Table_9553-01_2D
100
AcDbSpline
210
0.0
220
0.0
230
1.0
 70
     8
 71
     3
 72
    16
 73
    12
 74
     0
 42
0.0000000001
 43
0.0000000001
 40
0.0
 40
0.0
 40
0.0
 40
0.0
 40
2.100011706664274
 40
4.288177581580288
 40
8.905661522679496
 40
13.77094318508064
 40
18.78247617287746
 40
23.81811150027527
 40
28.73719774104259
 40
33.43523100152121
 40
37.82776313447641
 40
37.82776313447641
 40
37.82776313447641
 40
37.82776313447641
 10
-299.7345980505916
 20
1573.84772701636
 30
0.0
 10
-299.4176124126807
 20
1574.471954858396
 30
0.0
 10
-298.712324787597
 20
1575.716488638353
 30
0.0
 10
-297.037362653844
 20
1578.170808356733
 30
0.0
 10
-294.482084946163
 20
1581.117223803486
 30
0.0
 10
-290.8544179388542
 20
1584.322689361304
 30
0.0
 10
-286.7476240201887
 20
1587.139161505829
 30
0.0
 10
-282.3202179131667
 20
1589.45736314315
 30
0.0
 10
-277.7430588796933
 20
1591.1883418897
 30
0.0
 10
-273.1887180344711
 20
1592.268373340398
 30
0.0
 10
-270.161493166011
 20
1592.536724675088
 30
0.0
 10
-268.6969677462839
 20
1592.537052452407
 30
0.0
  0
SPLINE
  5
4A
330
1F
100
AcDbEntity
  8
Miura_Table_9553-01_2D
100
AcDbSpline
210
0.0
220
0.0
230
1.0
 70
    28
 71
     2
 72
     8
 73
     5
 74
     0
 42
0.0000000001
 43
0.0000000001
 40
1.570796326794897
 40
1.570796326794897
 40
1.570796326794897
 40
3.14159243176656
 40
3.14159243176656
 40
4.71238898038469
 40
4.71238898038469
 40
4.71238898038469
 10
-268.6969677462839
 20
1592.537052452407
 30
0.0
 41
0.9999998345539975
 10
-268.6969620470711
 20
1592.537052452408
 30
0.0
 41
0.7071068639095721
 10
-0.0006512265458696
 20
1592.537052452408
 30
0.0
 41
1.0
 10
268.6957669172536
 20
1592.537052452408
 30
0.0
 41
0.7071067811865476
 10
268.6958799413428
 20
1592.537052452407
 30
0.0
 41
1.0
  0
SPLINE
  5
4B
330
1F
100
AcDbEntity
  8
Miura_Table_9553-01_2D
100
AcDbSpline
210
0.0
220
0.0
230
1.0
 70
     8
 71
     3
 72
    16
 73
    12
 74
     0
 42
0.0000000001
 43
0.0000000001
 40
0.0
 40
0.0
 40
0.0
 40
0.0
 40
4.392532133187165
 40
9.103232288629092
 40
14.02234326408369
 40
19.0452869408877
 40
24.05681992868458
 40
28.92208547605943
 40
33.53958554339079
 40
35.72768669359076
 40
37.82776312512518
 40
37.82776312512518
 40
37.82776312512518
 40
37.82776312512518
 10
268.6958799413428
 20
1592.537052452407
 30
0.0
 10
270.1604042249851
 20
1592.536725229231
 30
0.0
 10
273.1918513525934
 20
1592.267998587056
 30
0.0
 10
277.7501550523566
 20
1591.186059417389
 30
0.0
 10
282.3267565089441
 20
1589.453648145445
 30
0.0
 10
286.7500324541934
 20
1587.136761803538
 30
0.0
 10
290.8533235130303
 20
1584.322695160063
 30
0.0
 10
294.4810105649798
 20
1581.117227443853
 30
0.0
 10
297.0362481000517
 20
1578.170828838201
 30
0.0
 10
298.711230946486
 20
1575.716507160188
 30
0.0
 10
299.4165117929269
 20
1574.47197397154
 30
0.0
 10
299.7335102456518
 20
1573.847727016361
 30
0.0
  0
SPLINE
  5
4C
330
1F
100
AcDbEntity
  8
Miura_Table_9553-01_2D
100
AcDbSpline
210
0.0
220
0.0
230
1.0
 70
    12
 71
     2
 72
     8
 73
     5
 74
     0
 42
0.0000000001
 43
0.0000000001
 40
0.0
 40
0.0
 40
0.0
 40
2.319453819145774
 40
2.319453819145774
 40
4.638907638291548
 40
4.638907638291548
 40
4.638907638291548
 10
299.7335102456518
 20
1573.847727016361
 30
0.0
 41
1.0
 10
300.3346528403364
 20
1572.723718762355
 30
0.0
 41
0.8700788288383344
 10
299.6793837550258
 20
1571.630385721799
 30
0.0
 41
1.0
 10
299.0241146697144
 20
1570.537052681243
 30
0.0
 41
0.8700788288383344
 10
297.7494554078444
 20
1570.537052421933
 30
0.0
 41
1.0
  0
SPLINE
  5
4D
330
1F
100
AcDbEntity
  8
Miura_Table_9553-01_2D
100
AcDbSpline
210
0.0
220
0.0
230
1.0
 70
    24
 71
     3
 72
     8
 73
     4
 74
     0
 42
0.0000000001
 43
0.0000000001
 40
-595.4999986204812
 40
-595.4999986204812
 40
-595.4999986204812
 40
-595.4999986204812
 40
0.0
 40
0.0
 40
0.0
 40
0.0
 10
297.7494554078444
 20
1570.537052421933
 30
0.0
 10
99.24945527060479
 20
1570.537052421921
 30
0.0
 10
-99.25054426955513
 20
1570.537052421945
 30
0.0
 10
-297.7505438097182
 20
1570.537052421933
 30
0.0
  0
SPLINE
  5
4E
330
1F
100
AcDbEntity
  8
Miura_Table_9553-01_2D
100
AcDbSpline
210
0.0
220
0.0
230
1.0
 70
    12
 71
     2
 72
     8
 73
     5
 74
     0
 42
0.0000000001
 43
0.0000000001
 40
0.0
 40
0.0
 40
0.0
 40
2.319454235981933
 40
2.319454235981933
 40
4.638908471963866
 40
4.638908471963866
 40
4.638908471963866
 10
-297.7505438097182
 20
1570.537052421933
 30
0.0
 41
1.0
 10
-299.0252028245604
 20
1570.53705206336
 30
0.0
 41
0.870078709377598
 10
-299.6804720898517
 20
1571.630385404143
 30
0.0
 41
1.0
 10
-300.3357413551426
 20
1572.723718744925
 30
0.0
 41
0.870078709377598
 10
-299.7345980505916
 20
1573.84772701636
 30
0.0
 41
1.0
  0
LINE
  5
4F
330
1F
100
AcDbEntity
  8
Miura_Table_9553-01_2D
100
AcDbLine
 10
-24.9996599744336
 20
1222.67949897835
 30
0.0
 11
-24.9996599744336
 21
1570.537052421934
 31
0.0
  0
LINE
  5
50
330
1F
100
AcDbEntity
  8
Miura_Table_9553-01_2D
100
AcDbLine
 10
25.0000927317924
 20
1570.537052421932
 30
0.0
 11
25.0000927317924
 21
1222.673245884116
 31
0.0
  0
LINE
  5
51
330
1F
100
AcDbEntity
  8
Miura_Table_9553-01_2D
100
AcDbLine
 10
1002.675276505211
 20
1570.537052421934
 30
0.0
 11
1002.675520183544
 21
1224.329221176015
 31
0.0
  0
LINE
  5
52
330
1F
100
AcDbEntity
  8
Miura_Table_9553-01_2D
100
AcDbLine
 10
1052.675061028533
 20
1219.329221159766
 30
0.0
 11
1052.675061031322
 21
1570.537052421933
 31
0.0
  0
LINE
  5
53
330
1F
100
AcDbEntity
  8
Miura_Table_9553-01_2D
100
AcDbLine
 10
1980.802003112131
 20
1219.926170692534
 30
0.0
 11
1980.802003112131
 21
1570.536872972432
 31
0.0
  0
LINE
  5
54
330
1F
100
AcDbEntity
  8
Miura_Table_9553-01_2D
100
AcDbLine
 10
2030.801755818357
 20
1570.536872972432
 30
0.0
 11
2030.801755818357
 21
1219.926170692534
 31
0.0
  0
SPLINE
  5
55
330
1F
100
AcDbEntity
  8
Miura_Table_9553-01_2D
100
AcDbSpline
210
0.0
220
0.0
230
1.0
 70
    24
 71
     2
 72
     6
 73
     3
 74
     0
 42
0.0000000001
 43
0.0000000001
 40
161.2195470941747
 40
161.2195470941747
 40
161.2195470941747
 40
203.6334854806771
 40
203.6334854806771
 40
203.6334854806771
 10
-25.13000115975209
 20
298.9455166228252
 30
0.0
 10
-25.13000115975219
 20
320.1524858160764
 30
0.0
 10
-25.13000115975228
 20
341.3594550093276
 30
0.0
  0
SPLINE
  5
56
330
1F
100
AcDbEntity
  8
Miura_Table_9553-01_2D
100
AcDbSpline
210
0.0
220
0.0
230
1.0
 70
    24
 71
     2
 72
     6
 73
     3
 74
     0
 42
0.0000000001
 43
0.0000000001
 40
0.0
 40
0.0
 40
0.0
 40
42.41402934839254
 40
42.41402934839254
 40
42.41402934839254
 10
25.13000115975319
 20
341.3594550093279
 30
0.0
 10
25.13000115975319
 20
320.1524403351316
 30
0.0
 10
25.13000115975319
 20
298.9454256609354
 30
0.0
  0
SPLINE
  5
57
330
1F
100
AcDbEntity
  8
Miura_Table_9553-01_2D
100
AcDbSpline
210
0.0
220
0.0
230
1.0
 70
    24
 71
     2
 72
     6
 73
     3
 74
     0
 42
0.0000000001
 43
0.0000000001
 40
161.2194600674175
 40
161.2194600674175
 40
161.2194600674175
 40
203.6337242888049
 40
203.6337242888049
 40
203.6337242888049
 10
271.4591301414037
 20
-127.7093759924823
 30
0.0
 10
289.8250452906772
 20
-138.3129420478291
 30
0.0
 10
308.1909604399507
 20
-148.9165081031759
 30
0.0
  0
SPLINE
  5
58
330
1F
100
AcDbEntity
  8
Miura_Table_9553-01_2D
100
AcDbSpline
210
0.0
220
0.0
230
1.0
 70
    24
 71
     2
 72
     6
 73
     3
 74
     0
 42
0.0000000001
 43
0.0000000001
 40
0.0
 40
0.0
 40
0.0
 40
42.41419722074819
 40
42.41419722074819
 40
42.41419722074819
 10
283.0609592801911
 20
-192.442946906129
 30
0.0
 10
264.6950731430455
 20
-181.8393976009419
 30
0.0
 10
246.3291870058998
 20
-171.2358482957548
 30
0.0
  0
SPLINE
  5
59
330
1F
100
AcDbEntity
  8
Miura_Table_9553-01_2D
100
AcDbSpline
210
0.0
220
0.0
230
1.0
 70
    15
 71
     2
 72
    12
 73
     9
 74
     0
 42
0.0000000001
 43
0.0000000001
 40
0.0
 40
0.0
 40
0.0
 40
422.0672392702101
 40
422.0672392702101
 40
844.134585913469
 40
844.134585913469
 40
1266.201932556728
 40
1266.201932556728
 40
1688.269279199987
 40
1688.269279199987
 40
1688.269279199987
 10
-0.0005432894477053
 20
268.6962704156998
 30
0.0
 41
1.0
 10
-268.6968540602411
 20
268.6962703667269
 30
0.0
 41
0.7071069224690467
 10
-268.6969613842734
 20
-0.0000404040450235
 30
0.0
 41
1.0
 10
-268.6970687083494
 20
-268.6964585478439
 30
0.0
 41
0.707106781186548
 10
-0.000650564550142
 20
-268.6965658719199
 30
0.0
 41
1.0
 10
268.6957675792492
 20
-268.6966731959961
 30
0.0
 41
0.7071067811865463
 10
268.6958749033247
 20
-0.0002550521965077
 30
0.0
 41
1.0
 10
268.6959822274008
 20
268.696163091603
 30
0.0
 41
0.7071067811865469
 10
-0.0005432894477053
 20
268.6962704156998
 30
0.0
 41
1.0
  0
SPLINE
  5
5A
330
1F
100
AcDbEntity
  8
Miura_Table_9553-01_2D
100
AcDbSpline
210
0.0
220
0.0
230
1.0
 70
    12
 71
     2
 72
     6
 73
     3
 74
     0
 42
0.0000000001
 43
0.0000000001
 40
0.0
 40
0.0
 40
0.0
 40
3.028274426341321
 40
3.028274426341321
 40
3.028274426341321
 10
1980.727229289495
 20
1169.96441755301
 30
0.0
 41
1.0
 10
1980.674874286775
 20
1168.451049083191
 30
0.0
 41
0.9998646962170749
 10
1980.672329485345
 20
1166.936777411485
 30
0.0
 41
1.0
  0
SPLINE
  5
5B
330
1F
100
AcDbEntity
  8
Miura_Table_9553-01_2D
100
AcDbSpline
210
0.0
220
0.0
230
1.0
 70
     8
 71
     3
 72
     8
 73
     4
 74
     0
 42
0.0000000001
 43
0.0000000001
 40
-17.56166272600342
 40
-17.56166272600342
 40
-17.56166272600342
 40
-17.56166272600342
 40
0.0
 40
0.0
 40
0.0
 40
0.0
 10
1980.672329485345
 20
1166.936777411485
 30
0.0
 10
1980.672329496458
 20
1161.082889836151
 30
0.0
 10
1980.672328324059
 20
1155.137248525327
 30
0.0
 10
1980.672328324059
 20
1149.283360949993
 30
0.0
  0
SPLINE
  5
5C
330
1F
100
AcDbEntity
  8
Miura_Table_9553-01_2D
100
AcDbSpline
210
0.0
220
0.0
230
1.0
 70
    24
 71
     2
 72
     6
 73
     3
 74
     0
 42
0.0000000001
 43
0.0000000001
 40
-297.6614457198009
 40
-297.6614457198009
 40
-297.6614457198009
 40
0.0
 40
0.0
 40
0.0
 10
1980.672328324059
 20
1149.283360949993
 30
0.0
 10
1980.672328324059
 20
1000.452638090092
 30
0.0
 10
1980.672328324059
 20
851.6219152301914
 30
0.0
  0
POLYLINE
  5
5D
330
1F
100
AcDbEntity
  8
Miura_Table_9553-01_2D
100
AcDb2dPolyline
 66
     1
 10
0.0
 20
0.0
 30
0.0
  0
VERTEX
  5
5E
330
5D
100
AcDbEntity
  8
Miura_Table_9553-01_2D
100
AcDbVertex
100
AcDb2dVertex
 10
1980.672328324059
 20
851.6219152301914
 30
0.0
  0
VERTEX
  5
5F
330
5D
100
AcDbEntity
  8
Miura_Table_9553-01_2D
100
AcDbVertex
100
AcDb2dVertex
 10
2030.931430606428
 20
851.6219152301914
 30
0.0
  0
SEQEND
  5
60
330
5D
100
AcDbEntity
  8
Miura_Table_9553-01_2D
  0
SPLINE
  5
61
330
1F
100
AcDbEntity
  8
Miura_Table_9553-01_2D
100
AcDbSpline
210
0.0
220
0.0
230
1.0
 70
    24
 71
     2
 72
     6
 73
     3
 74
     0
 42
0.0000000001
 43
0.0000000001
 40
0.0
 40
0.0
 40
0.0
 40
297.6614457198009
 40
297.6614457198009
 40
297.6614457198009
 10
2030.931430606428
 20
851.6219152301914
 30
0.0
 10
2030.931430606428
 20
1000.452638090092
 30
0.0
 10
2030.931430606428
 20
1149.283360949993
 30
0.0
  0
SPLINE
  5
62
330
1F
100
AcDbEntity
  8
Miura_Table_9553-01_2D
100
AcDbSpline
210
0.0
220
0.0
230
1.0
 70
     8
 71
     3
 72
     8
 73
     4
 74
     0
 42
0.0000000001
 43
0.0000000001
 40
0.0
 40
0.0
 40
0.0
 40
0.0
 40
17.56166272600342
 40
17.56166272600342
 40
17.56166272600342
 40
17.56166272600342
 10
2030.931430606428
 20
1149.283360949993
 30
0.0
 10
2030.931430606428
 20
1155.137248525327
 30
0.0
 10
2030.93142943403
 20
1161.082889836151
 30
0.0
 10
2030.931429445143
 20
1166.936777411485
 30
0.0
  0
SPLINE
  5
63
330
1F
100
AcDbEntity
  8
Miura_Table_9553-01_2D
100
AcDbSpline
210
0.0
220
0.0
230
1.0
 70
    12
 71
     2
 72
     6
 73
     3
 74
     0
 42
0.0000000001
 43
0.0000000001
 40
-3.028274426341321
 40
-3.028274426341321
 40
-3.028274426341321
 40
0.0
 40
0.0
 40
0.0
 10
2030.931429445143
 20
1166.936777411485
 30
0.0
 41
1.0
 10
2030.928884643712
 20
1168.451049083191
 30
0.0
 41
0.9998646962170749
 10
2030.876529640993
 20
1169.96441755301
 30
0.0
 41
1.0
  0
SPLINE
  5
64
330
1F
100
AcDbEntity
  8
Miura_Table_9553-01_2D
100
AcDbSpline
210
0.0
220
0.0
230
1.0
 70
    12
 71
     3
 72
    15
 73
    11
 74
     0
 42
0.0000000001
 43
0.0000000001
 40
-2.500401592028198
 40
-2.500401592028198
 40
-2.500401592028198
 40
-2.500401592028198
 40
-2.092447594524907
 40
-1.587472916212024
 40
-0.9787609925742227
 40
-0.6090244151814629
 40
0.0
 40
0.0
 40
0.0
 40
0.3719149623461165
 40
0.3719149623461165
 40
0.3719149623461165
 40
0.3719149623461165
 10
2030.801755818354
 20
1222.67086075407
 30
0.0
 41
1.0
 10
2030.821058211343
 20
1222.536245522778
 30
0.0
 41
1.0
 10
2030.854809791771
 20
1222.233731816902
 30
0.0
 41
1.0
 10
2030.890860536317
 20
1221.727736731842
 30
0.0
 41
1.0
 10
2030.913951799504
 20
1221.233785679085
 30
0.0
 41
1.0
 10
2030.934023951344
 20
1220.705009411403
 30
0.0
 41
1.0
 10
2030.945168224549
 20
1220.374401534708
 30
0.0
 41
1.0
 10
2030.952204667748
 20
1220.171515949579
 30
0.0
 41
1.0
 10
2030.956501650079
 20
1220.047618726247
 30
0.0
 41
0.9999990251576335
 10
2030.960562885474
 20
1219.917775165045
 30
0.0
 41
0.9999990251576335
 10
2030.96596403655
 20
1219.793921164005
 30
0.0
 41
1.0
  0
SPLINE
  5
65
330
1F
100
AcDbEntity
  8
Miura_Table_9553-01_2D
100
AcDbSpline
210
0.0
220
0.0
230
1.0
 70
    12
 71
     2
 72
     6
 73
     3
 74
     0
 42
0.0000000001
 43
0.0000000001
 40
-0.8893486808566594
 40
-0.8893486808566594
 40
-0.8893486808566594
 40
0.0
 40
0.0
 40
0.0
 10
2030.96596403655
 20
1219.793921164005
 30
0.0
 41
1.0
 10
2030.990235340962
 20
1219.237354958051
 30
0.0
 41
0.999995344343841
 10
2031.010171629779
 20
1218.793126367254
 30
0.0
 41
1.0
  0
SPLINE
  5
66
330
1F
100
AcDbEntity
  8
Miura_Table_9553-01_2D
100
AcDbSpline
210
0.0
220
0.0
230
1.0
 70
     8
 71
     3
 72
    16
 73
    12
 74
     0
 42
0.0000000001
 43
0.0000000001
 40
-44.08091113805039
 40
-44.08091113805039
 40
-44.08091113805039
 40
-44.08091113805039
 40
-41.32262018863005
 40
-38.57568005800472
 40
-32.83955618066763
 40
-27.18774927002762
 40
-21.55559266881473
 40
-10.57964571019579
 40
-5.268782545111494
 40
-2.760660175474776
 40
0.0
 40
0.0
 40
0.0
 40
0.0
 10
2031.010171629779
 20
1218.793126367254
 30
0.0
 10
2031.051391889071
 20
1217.87463958844
 30
0.0
 10
2031.160677576521
 20
1216.042538043931
 30
0.0
 10
2031.512772978813
 20
1212.311486583569
 30
0.0
 10
2032.17013113018
 20
1207.643816263351
 30
0.0
 10
2033.303068266477
 20
1202.08181423427
 30
0.0
 10
2035.233167183151
 20
1194.913901657322
 30
0.0
 10
2037.789445108523
 20
1188.05314870487
 30
0.0
 10
2040.556455427051
 20
1182.427768177154
 30
0.0
 10
2042.276720082547
 20
1179.348826332256
 30
0.0
 10
2043.209775860341
 20
1177.826885096866
 30
0.0
 10
2043.693562044126
 20
1177.044266193555
 30
0.0
  0
SPLINE
  5
67
330
1F
100
AcDbEntity
  8
Miura_Table_9553-01_2D
100
AcDbSpline
210
0.0
220
0.0
230
1.0
 70
     8
 71
     3
 72
    18
 73
    14
 74
     0
 42
0.0000000001
 43
0.0000000001
 40
-23.989786789493
 40
-23.989786789493
 40
-23.989786789493
 40
-23.989786789493
 40
-22.58263901442267
 40
-21.34373030388689
 40
-18.62944873608983
 40
-13.20000755298573
 40
-11.39409917538949
 40
-8.514888277655797
 40
-6.682465050476555
 40
-5.425659454196718
 40
-3.282334438373457
 40
-1.290606615411303
 40
0.0
 40
0.0
 40
0.0
 40
0.0
 10
2043.693562044126
 20
1177.044266193555
 30
0.0
 10
2043.940190848132
 20
1176.645295800052
 30
0.0
 10
2044.40542378459
 20
1175.895923478583
 30
0.0
 10
2045.37180245892
 20
1174.392966276784
 30
0.0
 10
2047.117194527123
 20
1171.797415267059
 30
0.0
 10
2049.077735332519
 20
1169.120919565256
 30
0.0
 10
2051.165118111661
 20
1166.473120821491
 30
0.0
 10
2052.551199329391
 20
1164.799934117683
 30
0.0
 10
2053.845785661913
 20
1163.289303395646
 30
0.0
 10
2054.990876229665
 20
1161.973610996594
 30
0.0
 10
2056.171649442992
 20
1160.618644753139
 30
0.0
 10
2057.354278679207
 20
1159.250311301862
 30
0.0
 10
2058.084410090597
 20
1158.405718781265
 30
0.0
 10
2058.366046092768
 20
1158.080513537728
 30
0.0
  0
SPLINE
  5
68
330
1F
100
AcDbEntity
  8
Miura_Table_9553-01_2D
100
AcDbSpline
210
0.0
220
0.0
230
1.0
 70
    24
 71
     2
 72
     6
 73
     3
 74
     0
 42
0.0000000001
 43
0.0000000001
 40
-405.407916564433
 40
-405.407916564433
 40
-405.407916564433
 40
0.0
 40
0.0
 40
0.0
 10
2058.366046092767
 20
1158.080513537728
 30
0.0
 10
2191.066936401829
 20
1004.85072395861
 30
0.0
 10
2323.767826710892
 20
851.6209343794917
 30
0.0
  0
POLYLINE
  5
69
330
1F
100
AcDbEntity
  8
Miura_Table_9553-01_2D
100
AcDb2dPolyline
 66
     1
 10
0.0
 20
0.0
 30
0.0
  0
VERTEX
  5
6A
330
69
100
AcDbEntity
  8
Miura_Table_9553-01_2D
100
AcDbVertex
100
AcDb2dVertex
 10
2323.767826710892
 20
851.6209343794917
 30
0.0
  0
VERTEX
  5
6B
330
69
100
AcDbEntity
  8
Miura_Table_9553-01_2D
100
AcDbVertex
100
AcDb2dVertex
 10
2279.099392598828
 20
851.6212581121811
 30
0.0
  0
SEQEND
  5
6C
330
69
100
AcDbEntity
  8
Miura_Table_9553-01_2D
  0
SPLINE
  5
6D
330
1F
100
AcDbEntity
  8
Miura_Table_9553-01_2D
100
AcDbSpline
210
0.0
220
0.0
230
1.0
 70
    24
 71
     2
 72
     6
 73
     3
 74
     0
 42
0.0000000001
 43
0.0000000001
 40
-379.0828237665146
 40
-379.0828237665146
 40
-379.0828237665146
 40
0.0
 40
0.0
 40
0.0
 10
2279.099392598828
 20
851.6212581121811
 30
0.0
 10
2155.015411602628
 20
994.9010978623475
 30
0.0
 10
2030.931430606428
 20
1138.180937612514
 30
0.0
  0
SPLINE
  5
6E
330
1F
100
AcDbEntity
  8
Miura_Table_9553-01_2D
100
AcDbSpline
210
0.0
220
0.0
230
1.0
 70
     8
 71
     3
 72
    13
 73
     9
 74
     0
 42
0.0000000001
 43
0.0000000001
 40
0.0
 40
0.0
 40
0.0
 40
0.0
 40
0.0787536068012881
 40
0.1449423458634473
 40
0.266120321626831
 40
0.3853723078620238
 40
0.4472243187928732
 40
0.5284135023430946
 40
0.5284135023430946
 40
0.5284135023430946
 40
0.5284135023430946
 10
2279.580417094772
 20
851.6215345094693
 30
0.0
 10
2279.554228445432
 20
851.6209712503306
 30
0.0
 10
2279.50570861072
 20
851.6164782300345
 30
0.0
 10
2279.42107772644
 20
851.5889218124637
 30
0.0
 10
2279.343878843671
 20
851.5119664927839
 30
0.0
 10
2279.339002084347
 20
851.4044972694907
 30
0.0
 10
2279.378283180579
 20
851.3254608971697
 30
0.0
 10
2279.408827998678
 20
851.2886398841677
 30
0.0
 10
2279.426761979628
 20
851.268348213026
 30
0.0
  0
SPLINE
  5
6F
330
1F
100
AcDbEntity
  8
Miura_Table_9553-01_2D
100
AcDbSpline
210
0.0
220
0.0
230
1.0
 70
    24
 71
     2
 72
     6
 73
     3
 74
     0
 42
0.0000000001
 43
0.0000000001
 40
0.0
 40
0.0
 40
0.0
 40
0.5244136134750971
 40
0.5244136134750971
 40
0.5244136134750971
 10
2279.426761979628
 20
851.268348213026
 30
0.0
 10
2279.59851644079
 20
851.070023338072
 30
0.0
 10
2279.770270901952
 20
850.8716984631179
 30
0.0
  0
SPLINE
  5
70
330
1F
100
AcDbEntity
  8
Miura_Table_9553-01_2D
100
AcDbSpline
210
0.0
220
0.0
230
1.0
 70
     8
 71
     3
 72
    12
 73
     8
 74
     0
 42
0.0000000001
 43
0.0000000001
 40
0.0
 40
0.0
 40
0.0
 40
0.0
 40
0.2152508561583033
 40
0.4345163837059823
 40
1.01494970701215
 40
1.738429140534348
 40
2.240363334908872
 40
2.240363334908872
 40
2.240363334908872
 40
2.240363334908872
 10
2279.770270901952
 20
850.8716984631179
 30
0.0
 10
2279.817310042004
 20
850.8171497287131
 30
0.0
 10
2279.913148367781
 20
850.7084937158358
 30
0.0
 10
2280.149504655301
 20
850.4663097312077
 30
0.0
 10
2280.521510183195
 20
850.1205594852908
 30
0.0
 10
2280.975311791332
 20
849.7250542246415
 30
0.0
 10
2281.293523761966
 20
849.4686526902805
 30
0.0
 10
2281.430164211848
 20
849.3718912869745
 30
0.0
  0
SPLINE
  5
71
330
1F
100
AcDbEntity
  8
Miura_Table_9553-01_2D
100
AcDbSpline
210
0.0
220
0.0
230
1.0
 70
     8
 71
     3
 72
    12
 73
     8
 74
     0
 42
0.0000000001
 43
0.0000000001
 40
0.0
 40
0.0
 40
0.0
 40
0.0
 40
2.849423647238892
 40
5.573258475154478
 40
11.17057419198277
 40
16.6544972940824
 40
22.23406149512204
 40
22.23406149512204
 40
22.23406149512204
 40
22.23406149512204
 10
2281.430164211848
 20
849.3718912869745
 30
0.0
 10
2282.202394979626
 20
848.8188035310228
 30
0.0
 10
2283.754856947638
 20
847.79593766168
 30
0.0
 10
2287.011290892652
 20
845.9851470619478
 30
0.0
 10
2291.273616628465
 20
844.2148197018092
 30
0.0
 10
2296.682265697793
 20
842.8859883847431
 30
0.0
 10
2300.366506662803
 20
842.5587745230707
 30
0.0
 10
2302.22622624472
 20
842.5370524524081
 30
0.0
  0
SPLINE
  5
72
330
1F
100
AcDbEntity
  8
Miura_Table_9553-01_2D
100
AcDbSpline
210
0.0
220
0.0
230
1.0
 70
     8
 71
     5
 72
    12
 73
     6
 74
     0
 42
0.0000000001
 43
0.0000000001
 40
-1.0
 40
-1.0
 40
-1.0
 40
-1.0
 40
-1.0
 40
-1.0
 40
0.0
 40
0.0
 40
0.0
 40
0.0
 40
0.0
 40
0.0
 10
2302.22622624472
 20
842.5370524524081
 30
0.0
 10
2302.30899646882
 20
842.5360856718922
 30
0.0
 10
2302.391769455849
 20
842.5353554375249
 30
0.0
 10
2302.474546986592
 20
842.5349150700611
 30
0.0
 10
2302.557322842543
 20
842.5346704288749
 30
0.0
 10
2302.640098712452
 20
842.5346656120943
 30
0.0
  0
SPLINE
  5
73
330
1F
100
AcDbEntity
  8
Miura_Table_9553-01_2D
100
AcDbSpline
210
0.0
220
0.0
230
1.0
 70
     8
 71
     3
 72
    12
 73
     8
 74
     0
 42
0.0000000001
 43
0.0000000001
 40
0.0
 40
0.0
 40
0.0
 40
0.0
 40
2.782398956976483
 40
5.60255636646087
 40
11.31396921066574
 40
16.96595331393149
 40
22.64829073387322
 40
22.64829073387322
 40
22.64829073387322
 40
22.64829073387322
 10
2302.640098712452
 20
842.5346656120943
 30
0.0
 10
2303.567570878907
 20
842.534611641898
 30
0.0
 10
2305.435052788054
 20
842.607253428048
 30
0.0
 10
2309.183944256079
 20
843.0429707081188
 30
0.0
 10
2313.79811895767
 20
844.1392198738375
 30
0.0
 10
2319.069339654124
 20
846.3056405914469
 30
0.0
 10
2322.310125279467
 20
848.2695498129483
 30
0.0
 10
2323.850393639157
 20
849.3719493909527
 30
0.0
  0
SPLINE
  5
74
330
1F
100
AcDbEntity
  8
Miura_Table_9553-01_2D
100
AcDbSpline
210
0.0
220
0.0
230
1.0
 70
     8
 71
     3
 72
    16
 73
    12
 74
     0
 42
0.0000000001
 43
0.0000000001
 40
0.0
 40
0.0
 40
0.0
 40
0.0
 40
0.1449268675943032
 40
0.2673386247060248
 40
0.5163843678365243
 40
0.7646474073394522
 40
0.9969847930951104
 40
1.194773719318494
 40
1.376962800151374
 40
1.556234553971886
 40
1.789638013214851
 40
1.789638013214851
 40
1.789638013214851
 40
1.789638013214851
 10
2323.850393639157
 20
849.3719493909527
 30
0.0
 10
2323.889768399681
 20
849.4000411012221
 30
0.0
 10
2323.961879123685
 20
849.4524796427651
 30
0.0
 10
2324.092450670177
 20
849.5649010349305
 30
0.0
 10
2324.230840608814
 20
849.7192543955188
 30
0.0
 10
2324.36070085636
 20
849.9260144305381
 30
0.0
 10
2324.442840289997
 20
850.1380628182678
 30
0.0
 10
2324.469824906371
 20
850.3421476334377
 30
0.0
 10
2324.440456098395
 20
850.528468130069
 30
0.0
 10
2324.351921548885
 20
850.7080313767771
 30
0.0
 10
2324.262155783794
 20
850.8131638423837
 30
0.0
 10
2324.211128262397
 20
850.8718706896509
 30
0.0
  0
SPLINE
  5
75
330
1F
100
AcDbEntity
  8
Miura_Table_9553-01_2D
100
AcDbSpline
210
0.0
220
0.0
230
1.0
 70
    24
 71
     2
 72
     6
 73
     3
 74
     0
 42
0.0000000001
 43
0.0000000001
 40
0.0
 40
0.0
 40
0.0
 40
0.5244495011186677
 40
0.5244495011186677
 40
0.5244495011186677
 10
2324.211128262397
 20
850.8718706896509
 30
0.0
 10
2324.039379896732
 20
851.07018936997
 30
0.0
 10
2323.867631531067
 20
851.2685080502887
 30
0.0
  0
SPLINE
  5
76
330
1F
100
AcDbEntity
  8
Miura_Table_9553-01_2D
100
AcDbSpline
210
0.0
220
0.0
230
1.0
 70
     8
 71
     3
 72
    12
 73
     8
 74
     0
 42
0.0000000001
 43
0.0000000001
 40
0.0
 40
0.0
 40
0.0
 40
0.0
 40
0.089002379783791
 40
0.1797960093880787
 40
0.4111935266141908
 40
0.6556287843907624
 40
0.8529822444616081
 40
0.8529822444616081
 40
0.8529822444616081
 40
0.8529822444616081
 10
2323.867631531067
 20
851.2685080502887
 30
0.0
 10
2323.848319569233
 20
851.2912358551428
 30
0.0
 10
2323.807525891978
 20
851.3353639151311
 30
0.0
 10
2323.698849250779
 20
851.4196164326332
 30
0.0
 10
2323.532328068745
 20
851.5098736112436
 30
0.0
 10
2323.322821087222
 20
851.5916739602477
 30
0.0
 10
2323.177301725316
 20
851.6195228087312
 30
0.0
 10
2323.111411476344
 20
851.6213065400016
 30
0.0
  0
SPLINE
  5
77
330
1F
100
AcDbEntity
  8
Miura_Table_9553-01_2D
100
AcDbSpline
210
0.0
220
0.0
230
1.0
 70
    12
 71
     3
 72
    18
 73
    14
 74
     0
 42
0.0000000001
 43
0.0000000001
 40
-17.08061118246446
 40
-17.08061118246446
 40
-17.08061118246446
 40
-17.08061118246446
 40
-15.57895392647034
 40
-15.57895392647034
 40
-15.57895392647034
 40
-11.24807156559795
 40
-11.24807156559795
 40
-11.24807156559795
 40
-8.873594413233327
 40
-6.279800604855796
 40
-3.187801552011506
 40
-1.394045745757028
 40
0.0
 40
0.0
 40
0.0
 40
0.0
 10
2026.296129990783
 20
1219.326260332965
 30
0.0
 41
1.0
 10
2026.849979129405
 20
1219.307572895595
 30
0.0
 41
0.8207490813200227
 10
2027.242166300106
 20
1218.915887487681
 30
0.0
 41
0.8207490813200227
 10
2027.261791770954
 20
1218.36183401683
 30
0.0
 41
1.0
 10
2027.313207191877
 20
1216.918795728801
 30
0.0
 41
0.9999156577956787
 10
2027.387581924693
 20
1215.476675589736
 30
0.0
 41
0.9999156577956787
 10
2027.484897150615
 20
1214.035838494409
 30
0.0
 41
1.0
 10
2027.538139093387
 20
1213.245490359785
 30
0.0
 41
1.0
 10
2027.662213898512
 20
1211.594006590798
 30
0.0
 41
1.0
 10
2027.902325192191
 20
1208.917942606526
 30
0.0
 41
1.0
 10
2028.153365139368
 20
1206.437402607019
 30
0.0
 41
1.0
 10
2028.377346651538
 20
1204.356149752484
 30
0.0
 41
1.0
 10
2028.495568652645
 20
1203.298008878153
 30
0.0
 41
1.0
 10
2028.549336453562
 20
1202.836445974916
 30
0.0
 41
1.0
  0
SPLINE
  5
78
330
1F
100
AcDbEntity
  8
Miura_Table_9553-01_2D
100
AcDbSpline
210
0.0
220
0.0
230
1.0
 70
     8
 71
     3
 72
    16
 73
    12
 74
     0
 42
0.0000000001
 43
0.0000000001
 40
-33.3642801434906
 40
-33.3642801434906
 40
-33.3642801434906
 40
-33.3642801434906
 40
-24.17426881783292
 40
-19.70973193739507
 40
-17.41415730793448
 40
-12.69286067967022
 40
-10.39643749466709
 40
-6.695123544693318
 40
-3.023047667395002
 40
-1.441026840298903
 40
0.0
 40
0.0
 40
0.0
 40
0.0
 10
2028.549336453561
 20
1202.836445974916
 30
0.0
 10
2028.903795661424
 20
1199.793635626086
 30
0.0
 10
2029.512918785663
 20
1195.28259072996
 30
0.0
 10
2030.317037528602
 20
1190.027038275084
 30
0.0
 10
2030.914547073806
 20
1186.246809201496
 30
0.0
 10
2031.408334240957
 20
1183.181918128004
 30
0.0
 10
2031.963761822898
 20
1179.652311052129
 30
0.0
 10
2032.441665301454
 20
1176.464639400085
 30
0.0
 10
2032.826199695024
 20
1173.504066606843
 30
0.0
 10
2033.053211144132
 20
1171.283776176968
 30
0.0
 10
2033.133851178648
 20
1170.279279653666
 30
0.0
 10
2033.166188890571
 20
1169.799803072094
 30
0.0
  0
SPLINE
  5
79
330
1F
100
AcDbEntity
  8
Miura_Table_9553-01_2D
100
AcDbSpline
210
0.0
220
0.0
230
1.0
 70
     8
 71
     3
 72
    12
 73
     8
 74
     0
 42
0.0000000001
 43
0.0000000001
 40
-2.866008512548971
 40
-2.866008512548971
 40
-2.866008512548971
 40
-2.866008512548971
 40
-2.180350089160199
 40
-1.316467333291305
 40
-0.6436630852735567
 40
-0.3236325452860642
 40
0.0
 40
0.0
 40
0.0
 40
0.0
 10
2033.166188890571
 20
1169.799803072094
 30
0.0
 10
2033.181727535045
 20
1169.571555757838
 30
0.0
 10
2033.209326912359
 20
1169.055773175631
 30
0.0
 10
2033.241072821368
 20
1168.315654078614
 30
0.0
 10
2033.258482808868
 20
1167.696975153566
 30
0.0
 10
2033.264324696211
 20
1167.258180657736
 30
0.0
 10
2033.26554957224
 20
1167.043633248091
 30
0.0
 10
2033.265551765141
 20
1166.935742894559
 30
0.0
  0
SPLINE
  5
7A
330
1F
100
AcDbEntity
  8
Miura_Table_9553-01_2D
100
AcDbSpline
210
0.0
220
0.0
230
1.0
 70
     8
 71
     3
 72
    13
 73
     9
 74
     0
 42
0.0000000001
 43
0.0000000001
 40
-8.067492795701003
 40
-8.067492795701003
 40
-8.067492795701003
 40
-8.067492795701003
 40
-6.929436622567084
 40
-5.933962300934527
 40
-4.014321351435199
 40
-2.037649979843422
 40
-1.015652899145925
 40
0.0
 40
0.0
 40
0.0
 40
0.0
 10
2033.265551765141
 20
1166.935742894559
 30
0.0
 10
2033.266205059183
 20
1166.556399913493
 30
0.0
 10
2033.252517478002
 20
1165.845022301902
 30
0.0
 10
2033.133891829479
 20
1164.498241632134
 30
0.0
 10
2032.789116435507
 20
1162.898348718218
 30
0.0
 10
2032.166697557159
 20
1161.374840999797
 30
0.0
 10
2031.511602132094
 20
1160.207221772728
 30
0.0
 10
2031.131565781095
 20
1159.643292178879
 30
0.0
 10
2030.931429437667
 20
1159.370348876417
 30
0.0
  0
SPLINE
  5
7B
330
1F
100
AcDbEntity
  8
Miura_Table_9553-01_2D
100
AcDbSpline
210
0.0
220
0.0
230
1.0
 70
    12
 71
     3
 72
    12
 73
     8
 74
     0
 42
0.0000000001
 43
0.0000000001
 40
-0.5262507170806857
 40
-0.5262507170806857
 40
-0.5262507170806857
 40
-0.5262507170806857
 40
-0.5145170103963779
 40
-0.5145170103963779
 40
-0.2542829628112115
 40
-0.2542829628112115
 40
-0.0317448945959232
 40
-0.0317448945959232
 40
-0.0317448945959232
 40
-0.0317448945959232
 10
2026.929088639053
 20
1219.072166662983
 30
0.0
 41
1.0
 10
2026.931565317023
 20
1219.076603400948
 30
0.0
 41
1.0
 10
2026.934056654444
 20
1219.080972337489
 30
0.0
 41
1.0
 10
2026.992115511782
 20
1219.180620328583
 30
0.0
 41
1.0
 10
2027.051229580602
 20
1219.240748788779
 30
0.0
 41
1.0
 10
2027.154785821516
 20
1219.308567483305
 30
0.0
 41
1.0
 10
2027.200387041698
 20
1219.323043299932
 30
0.0
 41
1.0
 10
2027.243907975002
 20
1219.32617195638
 30
0.0
 41
1.0
  0
SPLINE
  5
7C
330
1F
100
AcDbEntity
  8
Miura_Table_9553-01_2D
100
AcDbSpline
210
0.0
220
0.0
230
1.0
 70
     8
 71
     3
 72
    13
 73
     9
 74
     0
 42
0.0000000001
 43
0.0000000001
 40
0.0
 40
0.0
 40
0.0
 40
0.0
 40
0.0902184704601651
 40
0.1761896442498796
 40
0.3455632779639898
 40
0.4948657560424343
 40
0.5565632204593952
 40
0.6273565859503734
 40
0.6273565859503734
 40
0.6273565859503734
 40
0.6273565859503734
 10
2030.361183023785
 20
851.6211953152222
 30
0.0
 10
2030.391260708763
 20
851.6201387900032
 30
0.0
 10
2030.449827556128
 20
851.6149751107565
 30
0.0
 10
2030.561935978542
 20
851.5860573634435
 30
0.0
 10
2030.682088468064
 20
851.521826349526
 30
0.0
 10
2030.769751330691
 20
851.4263437378144
 30
0.0
 10
2030.801602605553
 20
851.3364138814583
 30
0.0
 10
2030.802359330274
 20
851.2919236045297
 30
0.0
 10
2030.802348251641
 20
851.2683617621906
 30
0.0
  0
SPLINE
  5
7D
330
1F
100
AcDbEntity
  8
Miura_Table_9553-01_2D
100
AcDbSpline
210
0.0
220
0.0
230
1.0
 70
    24
 71
     2
 72
     6
 73
     3
 74
     0
 42
0.0000000001
 43
0.0000000001
 40
0.0
 40
0.0
 40
0.0
 40
0.3964465280210447
 40
0.3964465280210447
 40
0.3964465280210447
 10
2030.802348251641
 20
851.2683617621906
 30
0.0
 10
2030.802334868542
 20
851.0701384982688
 30
0.0
 10
2030.802321485442
 20
850.8719152343472
 30
0.0
  0
SPLINE
  5
7E
330
1F
100
AcDbEntity
  8
Miura_Table_9553-01_2D
100
AcDbSpline
210
0.0
220
0.0
230
1.0
 70
     8
 71
     3
 72
    17
 73
    13
 74
     0
 42
0.0000000001
 43
0.0000000001
 40
0.0
 40
0.0
 40
0.0
 40
0.0
 40
0.0962064271533508
 40
0.1738289297854392
 40
0.3373064891879649
 40
0.5367070411386231
 40
0.7755987407383972
 40
1.076140845210531
 40
1.396849041230197
 40
1.692620935227626
 40
1.823404523223936
 40
1.966221085738844
 40
1.966221085738844
 40
1.966221085738844
 40
1.966221085738844
 10
2030.802321485442
 20
850.8719152343472
 30
0.0
 10
2030.80240517137
 20
850.8398326091977
 30
0.0
 10
2030.801965658606
 20
850.7818969238293
 30
0.0
 10
2030.789264384436
 20
850.6698901531523
 30
0.0
 10
2030.746248559935
 20
850.5286334491133
 30
0.0
 10
2030.652369874476
 20
850.3506481158812
 30
0.0
 10
2030.510111116607
 20
850.1492252408748
 30
0.0
 10
2030.322273724914
 20
849.932194515271
 30
0.0
 10
2030.104252063863
 20
849.7176669707414
 30
0.0
 10
2029.913577032048
 20
849.5570260586617
 30
0.0
 10
2029.759553171752
 20
849.4459807910487
 30
0.0
 10
2029.682537105803
 20
849.3970807578461
 30
0.0
 10
2029.642113170957
 20
849.3719023646917
 30
0.0
  0
SPLINE
  5
7F
330
1F
100
AcDbEntity
  8
Miura_Table_9553-01_2D
100
AcDbSpline
210
0.0
220
0.0
230
1.0
 70
    24
 71
     2
 72
     6
 73
     3
 74
     0
 42
0.0000000001
 43
0.0000000001
 40
0.0
 40
0.0
 40
0.0
 40
0.0002028258160686
 40
0.0002028258160686
 40
0.0002028258160686
 10
2029.642113170957
 20
849.3719023646917
 30
0.0
 10
2029.641784118738
 20
849.3716959298453
 30
0.0
 10
2029.641455066519
 20
849.3714894949986
 30
0.0
  0
SPLINE
  5
80
330
1F
100
AcDbEntity
  8
Miura_Table_9553-01_2D
100
AcDbSpline
210
0.0
220
0.0
230
1.0
 70
     8
 71
     3
 72
    25
 73
    21
 74
     0
 42
0.0000000001
 43
0.0000000001
 40
0.0
 40
0.0
 40
0.0
 40
0.0
 40
3.199587773031224
 40
6.339228569859387
 40
12.50824278581488
 40
18.76926702610335
 40
21.92722116738235
 40
23.54279560344114
 40
24.35060102343449
 40
24.73612324148421
 40
24.93803802146848
 40
25.02982611215962
 40
25.08490533980845
 40
25.10555096506041
 40
25.11462558692914
 40
25.12056925615265
 40
25.12388541331136
 40
25.12423612731493
 40
25.12438763465248
 40
25.12589178241075
 40
25.12589178241075
 40
25.12589178241075
 40
25.12589178241075
 10
2029.641455066519
 20
849.3714894949986
 30
0.0
 10
2028.736490832269
 20
848.8060758054976
 30
0.0
 10
2026.904535673407
 20
847.750385632535
 30
0.0
 10
2023.152936851002
 20
845.9254357566102
 30
0.0
 10
2018.264683799216
 20
844.1459470932921
 30
0.0
 10
2013.17140849608
 20
843.056098262773
 30
0.0
 10
2009.511659589596
 20
842.6666081395696
 30
0.0
 10
2007.653610070291
 20
842.5672396657507
 30
0.0
 10
2006.717593093462
 20
842.5426829694988
 30
0.0
 10
2006.25255821127
 20
842.536588751256
 30
0.0
 10
2006.026153652941
 20
842.5351485700073
 30
0.0
 10
2005.909896079079
 20
842.5347714607246
 30
0.0
 10
2005.854058455712
 20
842.5346911838442
 30
0.0
 10
2005.825792529436
 20
842.5346704313051
 30
0.0
 10
2005.813904589777
 20
842.5346670212366
 30
0.0
 10
2005.807834550718
 20
842.5346657644208
 30
0.0
 10
2005.804456744997
 20
842.5346657050795
 30
0.0
 10
2005.80382971985
 20
842.5346655450342
 30
0.0
 10
2005.803819183103
 20
842.534665629631
 30
0.0
 10
2005.803056085193
 20
842.5346656102561
 30
0.0
 10
2005.802567748715
 20
842.5346656127247
 30
0.0
  0
SPLINE
  5
81
330
1F
100
AcDbEntity
  8
Miura_Table_9553-01_2D
100
AcDbSpline
210
0.0
220
0.0
230
1.0
 70
     8
 71
     3
 72
    24
 73
    20
 74
     0
 42
0.0000000001
 43
0.0000000001
 40
0.0
 40
0.0
 40
0.0
 40
0.0
 40
0.0020036010011362
 40
0.0022547111983818
 40
0.0025058213949665
 40
0.0056257993940696
 40
0.01124053246391
 40
0.0196887687649597
 40
0.0391810618565542
 40
0.0782064054598164
 40
0.188361477556041
 40
0.3719392572807771
 40
0.7758219389144187
 40
1.546888493465523
 40
3.125770128968858
 40
6.302017912663968
 40
12.52633999462964
 40
18.76876323914055
 40
25.12624730574043
 40
25.12624730574043
 40
25.12624730574043
 40
25.12624730574043
 10
2005.802567748715
 20
842.5346656127247
 30
0.0
 10
2005.801897783779
 20
842.5346656103132
 30
0.0
 10
2005.800947706498
 20
842.5346656381547
 30
0.0
 10
2005.800775145894
 20
842.5346655475321
 30
0.0
 10
2005.800577743397
 20
842.5346656715737
 30
0.0
 10
2005.796724412945
 20
842.5346658371436
 30
0.0
 10
2005.791593873111
 20
842.5346666742452
 30
0.0
 10
2005.779947215857
 20
842.5346704003155
 30
0.0
 10
2005.758175234867
 20
842.5346843413505
 30
0.0
 10
2005.701450499201
 20
842.5347568146728
 30
0.0
 10
2005.590832917015
 20
842.5350845263473
 30
0.0
 10
2005.358143688348
 20
842.5365358661428
 30
0.0
 10
2004.905421526382
 20
842.5423360221154
 30
0.0
 10
2003.987716022402
 20
842.5661278551272
 30
0.0
 10
2002.147926014262
 20
842.6621390333696
 30
0.0
 10
1998.505887856251
 20
843.0446625020296
 30
0.0
 10
1993.392960044531
 20
844.1297648981578
 30
0.0
 10
1987.480011679266
 20
846.2743117291818
 30
0.0
 10
1983.761075941974
 20
848.2484658766132
 30
0.0
 10
1981.963152109607
 20
849.3715234941301
 30
0.0
  0
SPLINE
  5
82
330
1F
100
AcDbEntity
  8
Miura_Table_9553-01_2D
100
AcDbSpline
210
0.0
220
0.0
230
1.0
 70
     8
 71
     3
 72
    17
 73
    13
 74
     0
 42
0.0000000001
 43
0.0000000001
 40
0.0
 40
0.0
 40
0.0
 40
0.0
 40
0.1433371388019667
 40
0.27412170485795
 40
0.5698915548390707
 40
0.891163767339524
 40
1.191151497005544
 40
1.428512647803955
 40
1.628463248150809
 40
1.792814010234205
 40
1.870845827558681
 40
1.966221106772676
 40
1.966221106772676
 40
1.966221106772676
 40
1.966221106772676
 10
1981.963152109607
 20
849.3715234941301
 30
0.0
 10
1981.921973552944
 20
849.3971706955003
 30
0.0
 10
1981.844816472643
 20
849.4461740299549
 30
0.0
 10
1981.690672774989
 20
849.5573482198841
 30
0.0
 10
1981.499880452298
 20
849.7181418196477
 30
0.0
 10
1981.28189553871
 20
849.9327101009084
 30
0.0
 10
1981.094438402712
 20
850.1494020363475
 30
0.0
 10
1980.952478781173
 20
850.3503999770288
 30
0.0
 10
1980.858514029459
 20
850.5283036644284
 30
0.0
 10
1980.815278305806
 20
850.6701360716963
 30
0.0
 10
1980.802695183195
 20
850.7823211864128
 30
0.0
 10
1980.802236491375
 20
850.8400983654132
 30
0.0
 10
1980.802337482183
 20
850.8719152343472
 30
0.0
  0
SPLINE
  5
83
330
1F
100
AcDbEntity
  8
Miura_Table_9553-01_2D
100
AcDbSpline
210
0.0
220
0.0
230
1.0
 70
    24
 71
     2
 72
     6
 73
     3
 74
     0
 42
0.0000000001
 43
0.0000000001
 40
0.0
 40
0.0
 40
0.0
 40
0.3964465280210447
 40
0.3964465280210447
 40
0.3964465280210447
 10
1980.802337482183
 20
850.8719152343472
 30
0.0
 10
1980.802324099083
 20
851.0701384982688
 30
0.0
 10
1980.802310715984
 20
851.2683617621906
 30
0.0
  0
SPLINE
  5
84
330
1F
100
AcDbEntity
  8
Miura_Table_9553-01_2D
100
AcDbSpline
210
0.0
220
0.0
230
1.0
 70
     8
 71
     3
 72
    12
 73
     8
 74
     0
 42
0.0000000001
 43
0.0000000001
 40
0.0
 40
0.0
 40
0.0
 40
0.0
 40
0.0709674213457879
 40
0.1335862693815868
 40
0.2813937667583465
 40
0.4525062216949928
 40
0.6273569207154127
 40
0.6273569207154127
 40
0.6273569207154127
 40
0.6273569207154127
 10
1980.802310715984
 20
851.2683617621906
 30
0.0
 10
1980.802201384131
 20
851.2919805041686
 30
0.0
 10
1980.803184640916
 20
851.3368364765852
 30
0.0
 10
1980.835093836643
 20
851.426616080257
 30
0.0
 10
1980.923048409461
 20
851.5220688429122
 30
0.0
 10
1981.069911655368
 20
851.6007759553968
 30
0.0
 10
1981.185303157956
 20
851.6197098001338
 30
0.0
 10
1981.243476253539
 20
851.6211888331303
 30
0.0
  0
SPLINE
  5
85
330
1F
100
AcDbEntity
  8
Miura_Table_9553-01_2D
100
AcDbSpline
210
0.0
220
0.0
230
1.0
 70
    12
 71
     3
 72
    15
 73
    11
 74
     0
 42
0.0000000001
 43
0.0000000001
 40
-2.500401592028198
 40
-2.500401592028198
 40
-2.500401592028198
 40
-2.500401592028198
 40
-2.092447594524907
 40
-1.587472916212024
 40
-0.9787609925742227
 40
-0.6090244151814629
 40
0.0
 40
0.0
 40
0.0
 40
0.3719149623461165
 40
0.3719149623461165
 40
0.3719149623461165
 40
0.3719149623461165
 10
1980.802003112134
 20
1222.67086075407
 30
0.0
 41
1.0
 10
1980.782700719145
 20
1222.536245522778
 30
0.0
 41
1.0
 10
1980.748949138716
 20
1222.233731816902
 30
0.0
 41
1.0
 10
1980.712898394171
 20
1221.727736731842
 30
0.0
 41
1.0
 10
1980.689807130984
 20
1221.233785679085
 30
0.0
 41
1.0
 10
1980.669734979144
 20
1220.705009411403
 30
0.0
 41
1.0
 10
1980.658590705938
 20
1220.374401534708
 30
0.0
 41
1.0
 10
1980.65155426274
 20
1220.171515949579
 30
0.0
 41
1.0
 10
1980.647257280409
 20
1220.047618726247
 30
0.0
 41
0.9999990251576335
 10
1980.643196045013
 20
1219.917775165045
 30
0.0
 41
0.9999990251576335
 10
1980.637794893938
 20
1219.793921164005
 30
0.0
 41
1.0
  0
SPLINE
  5
86
330
1F
100
AcDbEntity
  8
Miura_Table_9553-01_2D
100
AcDbSpline
210
0.0
220
0.0
230
1.0
 70
    12
 71
     2
 72
     6
 73
     3
 74
     0
 42
0.0000000001
 43
0.0000000001
 40
-0.8893486808566594
 40
-0.8893486808566594
 40
-0.8893486808566594
 40
0.0
 40
0.0
 40
0.0
 10
1980.637794893938
 20
1219.793921164005
 30
0.0
 41
1.0
 10
1980.613523589526
 20
1219.237354958051
 30
0.0
 41
0.999995344343841
 10
1980.593587300709
 20
1218.793126367254
 30
0.0
 41
1.0
  0
SPLINE
  5
87
330
1F
100
AcDbEntity
  8
Miura_Table_9553-01_2D
100
AcDbSpline
210
0.0
220
0.0
230
1.0
 70
     8
 71
     3
 72
    16
 73
    12
 74
     0
 42
0.0000000001
 43
0.0000000001
 40
-44.08091113805039
 40
-44.08091113805039
 40
-44.08091113805039
 40
-44.08091113805039
 40
-41.32262018863005
 40
-38.57568005800472
 40
-32.83955618066763
 40
-27.18774927002762
 40
-21.55559266881473
 40
-10.57964571019579
 40
-5.268782545111494
 40
-2.760660175474776
 40
0.0
 40
0.0
 40
0.0
 40
0.0
 10
1980.593587300709
 20
1218.793126367254
 30
0.0
 10
1980.552367041417
 20
1217.87463958844
 30
0.0
 10
1980.443081353967
 20
1216.042538043931
 30
0.0
 10
1980.090985951675
 20
1212.311486583569
 30
0.0
 10
1979.433627800308
 20
1207.643816263351
 30
0.0
 10
1978.300690664011
 20
1202.08181423427
 30
0.0
 10
1976.370591747337
 20
1194.913901657322
 30
0.0
 10
1973.814313821965
 20
1188.05314870487
 30
0.0
 10
1971.047303503437
 20
1182.427768177154
 30
0.0
 10
1969.327038847941
 20
1179.348826332256
 30
0.0
 10
1968.393983070147
 20
1177.826885096866
 30
0.0
 10
1967.910196886362
 20
1177.044266193555
 30
0.0
  0
SPLINE
  5
88
330
1F
100
AcDbEntity
  8
Miura_Table_9553-01_2D
100
AcDbSpline
210
0.0
220
0.0
230
1.0
 70
     8
 71
     3
 72
    18
 73
    14
 74
     0
 42
0.0000000001
 43
0.0000000001
 40
-23.989786789493
 40
-23.989786789493
 40
-23.989786789493
 40
-23.989786789493
 40
-22.58263901442267
 40
-21.34373030388689
 40
-18.62944873608983
 40
-13.20000755298573
 40
-11.39409917538949
 40
-8.514888277655797
 40
-6.682465050476555
 40
-5.425659454196718
 40
-3.282334438373457
 40
-1.290606615411303
 40
0.0
 40
0.0
 40
0.0
 40
0.0
 10
1967.910196886362
 20
1177.044266193555
 30
0.0
 10
1967.663568082356
 20
1176.645295800052
 30
0.0
 10
1967.198335145898
 20
1175.895923478583
 30
0.0
 10
1966.231956471568
 20
1174.392966276784
 30
0.0
 10
1964.486564403365
 20
1171.797415267059
 30
0.0
 10
1962.526023597969
 20
1169.120919565256
 30
0.0
 10
1960.438640818827
 20
1166.473120821491
 30
0.0
 10
1959.052559601097
 20
1164.799934117683
 30
0.0
 10
1957.757973268575
 20
1163.289303395646
 30
0.0
 10
1956.612882700823
 20
1161.973610996594
 30
0.0
 10
1955.432109487495
 20
1160.618644753139
 30
0.0
 10
1954.249480251281
 20
1159.250311301862
 30
0.0
 10
1953.519348839891
 20
1158.405718781265
 30
0.0
 10
1953.23771283772
 20
1158.080513537728
 30
0.0
  0
SPLINE
  5
89
330
1F
100
AcDbEntity
  8
Miura_Table_9553-01_2D
100
AcDbSpline
210
0.0
220
0.0
230
1.0
 70
    24
 71
     2
 72
     6
 73
     3
 74
     0
 42
0.0000000001
 43
0.0000000001
 40
-405.407916564433
 40
-405.407916564433
 40
-405.407916564433
 40
0.0
 40
0.0
 40
0.0
 10
1953.237712837721
 20
1158.080513537728
 30
0.0
 10
1820.536822528658
 20
1004.85072395861
 30
0.0
 10
1687.835932219596
 20
851.6209343794917
 30
0.0
  0
POLYLINE
  5
8A
330
1F
100
AcDbEntity
  8
Miura_Table_9553-01_2D
100
AcDb2dPolyline
 66
     1
 10
0.0
 20
0.0
 30
0.0
  0
VERTEX
  5
8B
330
8A
100
AcDbEntity
  8
Miura_Table_9553-01_2D
100
AcDbVertex
100
AcDb2dVertex
 10
1687.835932219596
 20
851.6209343794917
 30
0.0
  0
VERTEX
  5
8C
330
8A
100
AcDbEntity
  8
Miura_Table_9553-01_2D
100
AcDbVertex
100
AcDb2dVertex
 10
1732.50436633166
 20
851.6212581121811
 30
0.0
  0
SEQEND
  5
8D
330
8A
100
AcDbEntity
  8
Miura_Table_9553-01_2D
  0
SPLINE
  5
8E
330
1F
100
AcDbEntity
  8
Miura_Table_9553-01_2D
100
AcDbSpline
210
0.0
220
0.0
230
1.0
 70
    24
 71
     2
 72
     6
 73
     3
 74
     0
 42
0.0000000001
 43
0.0000000001
 40
-379.0828237665146
 40
-379.0828237665146
 40
-379.0828237665146
 40
0.0
 40
0.0
 40
0.0
 10
1732.50436633166
 20
851.6212581121811
 30
0.0
 10
1856.58834732786
 20
994.9010978623475
 30
0.0
 10
1980.672328324059
 20
1138.180937612514
 30
0.0
  0
SPLINE
  5
8F
330
1F
100
AcDbEntity
  8
Miura_Table_9553-01_2D
100
AcDbSpline
210
0.0
220
0.0
230
1.0
 70
     8
 71
     3
 72
    13
 73
     9
 74
     0
 42
0.0000000001
 43
0.0000000001
 40
0.0
 40
0.0
 40
0.0
 40
0.0
 40
0.0787536068012881
 40
0.1449423458634473
 40
0.266120321626831
 40
0.3853723078620238
 40
0.4472243187928732
 40
0.5284135023430946
 40
0.5284135023430946
 40
0.5284135023430946
 40
0.5284135023430946
 10
1732.023341835716
 20
851.6215345094693
 30
0.0
 10
1732.049530485056
 20
851.6209712503306
 30
0.0
 10
1732.098050319767
 20
851.6164782300345
 30
0.0
 10
1732.182681204048
 20
851.5889218124637
 30
0.0
 10
1732.259880086817
 20
851.5119664927839
 30
0.0
 10
1732.264756846141
 20
851.4044972694907
 30
0.0
 10
1732.225475749909
 20
851.3254608971697
 30
0.0
 10
1732.19493093181
 20
851.2886398841677
 30
0.0
 10
1732.17699695086
 20
851.268348213026
 30
0.0
  0
SPLINE
  5
90
330
1F
100
AcDbEntity
  8
Miura_Table_9553-01_2D
100
AcDbSpline
210
0.0
220
0.0
230
1.0
 70
    24
 71
     2
 72
     6
 73
     3
 74
     0
 42
0.0000000001
 43
0.0000000001
 40
0.0
 40
0.0
 40
0.0
 40
0.5244136134750971
 40
0.5244136134750971
 40
0.5244136134750971
 10
1732.17699695086
 20
851.268348213026
 30
0.0
 10
1732.005242489698
 20
851.070023338072
 30
0.0
 10
1731.833488028536
 20
850.8716984631179
 30
0.0
  0
SPLINE
  5
91
330
1F
100
AcDbEntity
  8
Miura_Table_9553-01_2D
100
AcDbSpline
210
0.0
220
0.0
230
1.0
 70
     8
 71
     3
 72
    12
 73
     8
 74
     0
 42
0.0000000001
 43
0.0000000001
 40
0.0
 40
0.0
 40
0.0
 40
0.0
 40
0.2152508561583033
 40
0.4345163837059823
 40
1.01494970701215
 40
1.738429140534348
 40
2.240363334908872
 40
2.240363334908872
 40
2.240363334908872
 40
2.240363334908872
 10
1731.833488028536
 20
850.8716984631179
 30
0.0
 10
1731.786448888484
 20
850.8171497287131
 30
0.0
 10
1731.690610562707
 20
850.7084937158358
 30
0.0
 10
1731.454254275186
 20
850.4663097312077
 30
0.0
 10
1731.082248747293
 20
850.1205594852908
 30
0.0
 10
1730.628447139156
 20
849.7250542246415
 30
0.0
 10
1730.310235168522
 20
849.4686526902805
 30
0.0
 10
1730.17359471864
 20
849.3718912869745
 30
0.0
  0
SPLINE
  5
92
330
1F
100
AcDbEntity
  8
Miura_Table_9553-01_2D
100
AcDbSpline
210
0.0
220
0.0
230
1.0
 70
     8
 71
     3
 72
    12
 73
     8
 74
     0
 42
0.0000000001
 43
0.0000000001
 40
0.0
 40
0.0
 40
0.0
 40
0.0
 40
2.849423647238892
 40
5.573258475154478
 40
11.17057419198277
 40
16.6544972940824
 40
22.23406149512204
 40
22.23406149512204
 40
22.23406149512204
 40
22.23406149512204
 10
1730.17359471864
 20
849.3718912869745
 30
0.0
 10
1729.401363950862
 20
848.8188035310228
 30
0.0
 10
1727.84890198285
 20
847.79593766168
 30
0.0
 10
1724.592468037836
 20
845.9851470619478
 30
0.0
 10
1720.330142302023
 20
844.2148197018092
 30
0.0
 10
1714.921493232695
 20
842.8859883847431
 30
0.0
 10
1711.237252267685
 20
842.5587745230707
 30
0.0
 10
1709.377532685768
 20
842.5370524524081
 30
0.0
  0
SPLINE
  5
93
330
1F
100
AcDbEntity
  8
Miura_Table_9553-01_2D
100
AcDbSpline
210
0.0
220
0.0
230
1.0
 70
     8
 71
     5
 72
    12
 73
     6
 74
     0
 42
0.0000000001
 43
0.0000000001
 40
-1.0
 40
-1.0
 40
-1.0
 40
-1.0
 40
-1.0
 40
-1.0
 40
0.0
 40
0.0
 40
0.0
 40
0.0
 40
0.0
 40
0.0
 10
1709.377532685768
 20
842.5370524524081
 30
0.0
 10
1709.294762461668
 20
842.5360856718922
 30
0.0
 10
1709.211989474639
 20
842.5353554375249
 30
0.0
 10
1709.129211943896
 20
842.5349150700611
 30
0.0
 10
1709.046436087944
 20
842.5346704288749
 30
0.0
 10
1708.963660218036
 20
842.5346656120943
 30
0.0
  0
SPLINE
  5
94
330
1F
100
AcDbEntity
  8
Miura_Table_9553-01_2D
100
AcDbSpline
210
0.0
220
0.0
230
1.0
 70
     8
 71
     3
 72
    12
 73
     8
 74
     0
 42
0.0000000001
 43
0.0000000001
 40
0.0
 40
0.0
 40
0.0
 40
0.0
 40
2.782398956976483
 40
5.60255636646087
 40
11.31396921066574
 40
16.96595331393149
 40
22.64829073387322
 40
22.64829073387322
 40
22.64829073387322
 40
22.64829073387322
 10
1708.963660218036
 20
842.5346656120943
 30
0.0
 10
1708.036188051581
 20
842.534611641898
 30
0.0
 10
1706.168706142434
 20
842.607253428048
 30
0.0
 10
1702.419814674408
 20
843.0429707081188
 30
0.0
 10
1697.805639972818
 20
844.1392198738375
 30
0.0
 10
1692.534419276364
 20
846.3056405914469
 30
0.0
 10
1689.293633651021
 20
848.2695498129483
 30
0.0
 10
1687.753365291331
 20
849.3719493909527
 30
0.0
  0
SPLINE
  5
95
330
1F
100
AcDbEntity
  8
Miura_Table_9553-01_2D
100
AcDbSpline
210
0.0
220
0.0
230
1.0
 70
     8
 71
     3
 72
    16
 73
    12
 74
     0
 42
0.0000000001
 43
0.0000000001
 40
0.0
 40
0.0
 40
0.0
 40
0.0
 40
0.1449268675943032
 40
0.2673386247060248
 40
0.5163843678365243
 40
0.7646474073394522
 40
0.9969847930951104
 40
1.194773719318494
 40
1.376962800151374
 40
1.556234553971886
 40
1.789638013214851
 40
1.789638013214851
 40
1.789638013214851
 40
1.789638013214851
 10
1687.753365291331
 20
849.3719493909527
 30
0.0
 10
1687.713990530807
 20
849.4000411012221
 30
0.0
 10
1687.641879806803
 20
849.4524796427651
 30
0.0
 10
1687.511308260312
 20
849.5649010349305
 30
0.0
 10
1687.372918321674
 20
849.7192543955188
 30
0.0
 10
1687.243058074128
 20
849.9260144305381
 30
0.0
 10
1687.160918640491
 20
850.1380628182678
 30
0.0
 10
1687.133934024117
 20
850.3421476334377
 30
0.0
 10
1687.163302832093
 20
850.528468130069
 30
0.0
 10
1687.251837381603
 20
850.7080313767771
 30
0.0
 10
1687.341603146694
 20
850.8131638423837
 30
0.0
 10
1687.392630668091
 20
850.8718706896509
 30
0.0
  0
SPLINE
  5
96
330
1F
100
AcDbEntity
  8
Miura_Table_9553-01_2D
100
AcDbSpline
210
0.0
220
0.0
230
1.0
 70
    24
 71
     2
 72
     6
 73
     3
 74
     0
 42
0.0000000001
 43
0.0000000001
 40
0.0
 40
0.0
 40
0.0
 40
0.5244495011186677
 40
0.5244495011186677
 40
0.5244495011186677
 10
1687.392630668091
 20
850.8718706896509
 30
0.0
 10
1687.564379033756
 20
851.07018936997
 30
0.0
 10
1687.736127399421
 20
851.2685080502887
 30
0.0
  0
SPLINE
  5
97
330
1F
100
AcDbEntity
  8
Miura_Table_9553-01_2D
100
AcDbSpline
210
0.0
220
0.0
230
1.0
 70
     8
 71
     3
 72
    12
 73
     8
 74
     0
 42
0.0000000001
 43
0.0000000001
 40
0.0
 40
0.0
 40
0.0
 40
0.0
 40
0.089002379783791
 40
0.1797960093880787
 40
0.4111935266141908
 40
0.6556287843907624
 40
0.8529822444616081
 40
0.8529822444616081
 40
0.8529822444616081
 40
0.8529822444616081
 10
1687.736127399421
 20
851.2685080502887
 30
0.0
 10
1687.755439361255
 20
851.2912358551428
 30
0.0
 10
1687.796233038509
 20
851.3353639151311
 30
0.0
 10
1687.904909679708
 20
851.4196164326332
 30
0.0
 10
1688.071430861743
 20
851.5098736112436
 30
0.0
 10
1688.280937843266
 20
851.5916739602477
 30
0.0
 10
1688.426457205172
 20
851.6195228087312
 30
0.0
 10
1688.492347454144
 20
851.6213065400016
 30
0.0
  0
SPLINE
  5
98
330
1F
100
AcDbEntity
  8
Miura_Table_9553-01_2D
100
AcDbSpline
210
0.0
220
0.0
230
1.0
 70
    12
 71
     3
 72
    18
 73
    14
 74
     0
 42
0.0000000001
 43
0.0000000001
 40
-17.08061118246446
 40
-17.08061118246446
 40
-17.08061118246446
 40
-17.08061118246446
 40
-15.57895392647034
 40
-15.57895392647034
 40
-15.57895392647034
 40
-11.24807156559795
 40
-11.24807156559795
 40
-11.24807156559795
 40
-8.873594413233327
 40
-6.279800604855796
 40
-3.187801552011506
 40
-1.394045745757028
 40
0.0
 40
0.0
 40
0.0
 40
0.0
 10
1985.307628939705
 20
1219.326260332965
 30
0.0
 41
1.0
 10
1984.753779801083
 20
1219.307572895595
 30
0.0
 41
0.8207490813200227
 10
1984.361592630382
 20
1218.915887487681
 30
0.0
 41
0.8207490813200227
 10
1984.341967159534
 20
1218.36183401683
 30
0.0
 41
1.0
 10
1984.290551738611
 20
1216.918795728801
 30
0.0
 41
0.9999156577956787
 10
1984.216177005795
 20
1215.476675589736
 30
0.0
 41
0.9999156577956787
 10
1984.118861779873
 20
1214.035838494409
 30
0.0
 41
1.0
 10
1984.065619837101
 20
1213.245490359785
 30
0.0
 41
1.0
 10
1983.941545031976
 20
1211.594006590798
 30
0.0
 41
1.0
 10
1983.701433738297
 20
1208.917942606526
 30
0.0
 41
1.0
 10
1983.45039379112
 20
1206.437402607019
 30
0.0
 41
1.0
 10
1983.22641227895
 20
1204.356149752484
 30
0.0
 41
1.0
 10
1983.108190277843
 20
1203.298008878153
 30
0.0
 41
1.0
 10
1983.054422476926
 20
1202.836445974916
 30
0.0
 41
1.0
  0
SPLINE
  5
99
330
1F
100
AcDbEntity
  8
Miura_Table_9553-01_2D
100
AcDbSpline
210
0.0
220
0.0
230
1.0
 70
     8
 71
     3
 72
    16
 73
    12
 74
     0
 42
0.0000000001
 43
0.0000000001
 40
-33.3642801434906
 40
-33.3642801434906
 40
-33.3642801434906
 40
-33.3642801434906
 40
-24.17426881783292
 40
-19.70973193739507
 40
-17.41415730793448
 40
-12.69286067967022
 40
-10.39643749466709
 40
-6.695123544693318
 40
-3.023047667395002
 40
-1.441026840298903
 40
0.0
 40
0.0
 40
0.0
 40
0.0
 10
1983.054422476927
 20
1202.836445974916
 30
0.0
 10
1982.699963269064
 20
1199.793635626086
 30
0.0
 10
1982.090840144825
 20
1195.28259072996
 30
0.0
 10
1981.286721401886
 20
1190.027038275084
 30
0.0
 10
1980.689211856682
 20
1186.246809201496
 30
0.0
 10
1980.195424689531
 20
1183.181918128004
 30
0.0
 10
1979.63999710759
 20
1179.652311052129
 30
0.0
 10
1979.162093629034
 20
1176.464639400085
 30
0.0
 10
1978.777559235464
 20
1173.504066606843
 30
0.0
 10
1978.550547786356
 20
1171.283776176968
 30
0.0
 10
1978.469907751839
 20
1170.279279653666
 30
0.0
 10
1978.437570039917
 20
1169.799803072094
 30
0.0
  0
SPLINE
  5
9A
330
1F
100
AcDbEntity
  8
Miura_Table_9553-01_2D
100
AcDbSpline
210
0.0
220
0.0
230
1.0
 70
     8
 71
     3
 72
    12
 73
     8
 74
     0
 42
0.0000000001
 43
0.0000000001
 40
-2.866008512548971
 40
-2.866008512548971
 40
-2.866008512548971
 40
-2.866008512548971
 40
-2.180350089160199
 40
-1.316467333291305
 40
-0.6436630852735567
 40
-0.3236325452860642
 40
0.0
 40
0.0
 40
0.0
 40
0.0
 10
1978.437570039917
 20
1169.799803072094
 30
0.0
 10
1978.422031395442
 20
1169.571555757838
 30
0.0
 10
1978.394432018129
 20
1169.055773175631
 30
0.0
 10
1978.36268610912
 20
1168.315654078614
 30
0.0
 10
1978.34527612162
 20
1167.696975153566
 30
0.0
 10
1978.339434234277
 20
1167.258180657736
 30
0.0
 10
1978.338209358248
 20
1167.043633248091
 30
0.0
 10
1978.338207165346
 20
1166.935742894559
 30
0.0
  0
SPLINE
  5
9B
330
1F
100
AcDbEntity
  8
Miura_Table_9553-01_2D
100
AcDbSpline
210
0.0
220
0.0
230
1.0
 70
     8
 71
     3
 72
    13
 73
     9
 74
     0
 42
0.0000000001
 43
0.0000000001
 40
-8.067492795701003
 40
-8.067492795701003
 40
-8.067492795701003
 40
-8.067492795701003
 40
-6.929436622567084
 40
-5.933962300934527
 40
-4.014321351435199
 40
-2.037649979843422
 40
-1.015652899145925
 40
0.0
 40
0.0
 40
0.0
 40
0.0
 10
1978.338207165346
 20
1166.935742894559
 30
0.0
 10
1978.337553871305
 20
1166.556399913493
 30
0.0
 10
1978.351241452486
 20
1165.845022301902
 30
0.0
 10
1978.469867101009
 20
1164.498241632134
 30
0.0
 10
1978.81464249498
 20
1162.898348718218
 30
0.0
 10
1979.437061373329
 20
1161.374840999797
 30
0.0
 10
1980.092156798394
 20
1160.207221772728
 30
0.0
 10
1980.472193149393
 20
1159.643292178879
 30
0.0
 10
1980.672329492821
 20
1159.370348876417
 30
0.0
  0
SPLINE
  5
9C
330
1F
100
AcDbEntity
  8
Miura_Table_9553-01_2D
100
AcDbSpline
210
0.0
220
0.0
230
1.0
 70
    12
 71
     3
 72
    12
 73
     8
 74
     0
 42
0.0000000001
 43
0.0000000001
 40
-0.5262507170806857
 40
-0.5262507170806857
 40
-0.5262507170806857
 40
-0.5262507170806857
 40
-0.5145170103963779
 40
-0.5145170103963779
 40
-0.2542829628112115
 40
-0.2542829628112115
 40
-0.0317448945959232
 40
-0.0317448945959232
 40
-0.0317448945959232
 40
-0.0317448945959232
 10
1984.674670291435
 20
1219.072166662983
 30
0.0
 41
1.0
 10
1984.672193613465
 20
1219.076603400948
 30
0.0
 41
1.0
 10
1984.669702276044
 20
1219.080972337489
 30
0.0
 41
1.0
 10
1984.611643418706
 20
1219.180620328583
 30
0.0
 41
1.0
 10
1984.552529349885
 20
1219.240748788779
 30
0.0
 41
1.0
 10
1984.448973108972
 20
1219.308567483305
 30
0.0
 41
1.0
 10
1984.40337188879
 20
1219.323043299932
 30
0.0
 41
1.0
 10
1984.359850955486
 20
1219.32617195638
 30
0.0
 41
1.0
  0
ARC
  5
9D
330
1F
100
AcDbEntity
  8
Miura_Table_9553-01_2D
100
AcDbCircle
 10
2020.788209192005
 20
1219.926170692534
 30
0.0
 40
10.01354662635185
100
AcDbArc
 50
356.5686501530192
 51
0.0
  0
SPLINE
  5
9E
330
1F
100
AcDbEntity
  8
Miura_Table_9553-01_2D
100
AcDbSpline
210
0.0
220
0.0
230
1.0
 70
    12
 71
     2
 72
     6
 73
     3
 74
     0
 42
0.0000000001
 43
0.0000000001
 40
0.0
 40
0.0
 40
0.0
 40
3.332521385645804
 40
3.332521385645804
 40
3.332521385645804
 10
2030.783803817734
 20
1219.326834295987
 30
0.0
 41
1.0
 10
2029.117543124911
 20
1219.326834350669
 30
0.0
 41
0.9999999999999998
 10
2027.451282432088
 20
1219.326834330384
 30
0.0
 41
1.0
  0
SPLINE
  5
9F
330
1F
100
AcDbEntity
  8
Miura_Table_9553-01_2D
100
AcDbSpline
210
0.0
220
0.0
230
1.0
 70
    24
 71
     2
 72
     6
 73
     3
 74
     0
 42
0.0000000001
 43
0.0000000001
 40
0.0
 40
0.0
 40
0.0
 40
8.348680839593043
 40
8.348680839593043
 40
8.348680839593043
 10
2027.451282432088
 20
1219.326834330384
 30
0.0
 10
2023.276942012291
 20
1219.32683431595
 30
0.0
 10
2019.102601592495
 20
1219.326834301516
 30
0.0
  0
SPLINE
  5
A0
330
1F
100
AcDbEntity
  8
Miura_Table_9553-01_2D
100
AcDbSpline
210
0.0
220
0.0
230
1.0
 70
    24
 71
     2
 72
     6
 73
     3
 74
     0
 42
0.0000000001
 43
0.0000000001
 40
0.0
 40
0.0
 40
0.0
 40
0.0160983755549751
 40
0.0160983755549751
 40
0.0160983755549751
 10
2019.102601592495
 20
1219.326834301516
 30
0.0
 10
2019.094552404717
 20
1219.326834301468
 30
0.0
 10
2019.08650321694
 20
1219.326834301421
 30
0.0
  0
SPLINE
  5
A1
330
1F
100
AcDbEntity
  8
Miura_Table_9553-01_2D
100
AcDbSpline
210
0.0
220
0.0
230
1.0
 70
    12
 71
     3
 72
    10
 73
     6
 74
     0
 42
0.0000000001
 43
0.0000000001
 40
0.0049548717152337
 40
0.0049548717152337
 40
0.0049548717152337
 40
0.0049548717152337
 40
0.7080051891948135
 40
0.7080051891948135
 40
1.41140173157308
 40
1.41140173157308
 40
1.41140173157308
 40
1.41140173157308
 10
2019.08650321694
 20
1219.326834301421
 30
0.0
 41
1.0
 10
2018.88578744018
 20
1219.326828982357
 30
0.0
 41
1.0
 10
2018.690117475955
 20
1219.410547014659
 30
0.0
 41
1.0
 10
2018.378678188282
 20
1219.717074393611
 30
0.0
 41
1.0
 10
2018.274253257407
 20
1219.929070514401
 30
0.0
 41
1.0
 10
2018.240559557653
 20
1220.16294397482
 30
0.0
 41
1.0
  0
SPLINE
  5
A2
330
1F
100
AcDbEntity
  8
Miura_Table_9553-01_2D
100
AcDbSpline
210
0.0
220
0.0
230
1.0
 70
     8
 71
     3
 72
    18
 73
    14
 74
     0
 42
0.0000000001
 43
0.0000000001
 40
0.0
 40
0.0
 40
0.0
 40
0.0
 40
1.377704624405373
 40
2.696713512584107
 40
3.984914730732072
 40
5.250484060508209
 40
5.917725107688561
 40
6.281926508383835
 40
6.60481718544714
 40
6.899780132333365
 40
7.290264732586266
 40
8.184836209513848
 40
14.64921461756716
 40
14.64921461756716
 40
14.64921461756716
 40
14.64921461756716
 10
2018.240559557653
 20
1220.16294397482
 30
0.0
 10
2018.175164335109
 20
1220.617442921824
 30
0.0
 10
2017.941158652172
 20
1221.492498233168
 30
0.0
 10
2017.277909196371
 20
1222.656966451195
 30
0.0
 10
2016.341732193587
 20
1223.566283948015
 30
0.0
 10
2015.373847534321
 20
1224.058251989725
 30
0.0
 10
2014.629903933231
 20
1224.246991541602
 30
0.0
 10
2014.182202408011
 20
1224.308527223453
 30
0.0
 10
2013.855302511187
 20
1224.327891200922
 30
0.0
 10
2013.519110472106
 20
1224.327121483541
 30
0.0
 10
2012.992491066339
 20
1224.326721747855
 30
0.0
 10
2010.409442003137
 20
1224.326988290528
 30
0.0
 10
2007.956584090595
 20
1224.326742870527
 30
0.0
 10
2005.801879465244
 20
1224.326834335618
 30
0.0
  0
SPLINE
  5
A3
330
1F
100
AcDbEntity
  8
Miura_Table_9553-01_2D
100
AcDbSpline
210
0.0
220
0.0
230
1.0
 70
     8
 71
     3
 72
    18
 73
    14
 74
     0
 42
0.0000000001
 43
0.0000000001
 40
-14.64921461756716
 40
-14.64921461756716
 40
-14.64921461756716
 40
-14.64921461756716
 40
-8.184836209513706
 40
-7.290264732586143
 40
-6.899780132333247
 40
-6.604817185447028
 40
-6.281926508383727
 40
-5.91772510768846
 40
-5.25048406050812
 40
-3.984914730732004
 40
-2.69671351258406
 40
-1.37770462440535
 40
0.0
 40
0.0
 40
0.0
 40
0.0
 10
2005.801879465244
 20
1224.326834335618
 30
0.0
 10
2003.647174839893
 20
1224.326742870527
 30
0.0
 10
2001.194316927351
 20
1224.326988290528
 30
0.0
 10
1998.611267864149
 20
1224.326721747855
 30
0.0
 10
1998.084648458382
 20
1224.327121483541
 30
0.0
 10
1997.748456419301
 20
1224.327891200922
 30
0.0
 10
1997.421556522477
 20
1224.308527223453
 30
0.0
 10
1996.973854997257
 20
1224.246991541602
 30
0.0
 10
1996.229911396167
 20
1224.058251989725
 30
0.0
 10
1995.262026736901
 20
1223.566283948015
 30
0.0
 10
1994.325849734117
 20
1222.656966451195
 30
0.0
 10
1993.662600278315
 20
1221.492498233168
 30
0.0
 10
1993.428594595379
 20
1220.617442921824
 30
0.0
 10
1993.363199372835
 20
1220.16294397482
 30
0.0
  0
SPLINE
  5
A4
330
1F
100
AcDbEntity
  8
Miura_Table_9553-01_2D
100
AcDbSpline
210
0.0
220
0.0
230
1.0
 70
    12
 71
     3
 72
    10
 73
     6
 74
     0
 42
0.0000000001
 43
0.0000000001
 40
-1.41140173157308
 40
-1.41140173157308
 40
-1.41140173157308
 40
-1.41140173157308
 40
-0.7080051891948135
 40
-0.7080051891948135
 40
-0.0049548717152337
 40
-0.0049548717152337
 40
-0.0049548717152337
 40
-0.0049548717152337
 10
1993.363199372835
 20
1220.16294397482
 30
0.0
 41
1.0
 10
1993.329505673081
 20
1219.929070514401
 30
0.0
 41
1.0
 10
1993.225080742206
 20
1219.717074393611
 30
0.0
 41
1.0
 10
1992.913641454533
 20
1219.410547014659
 30
0.0
 41
1.0
 10
1992.717971490308
 20
1219.326828982357
 30
0.0
 41
1.0
 10
1992.517255713548
 20
1219.326834301421
 30
0.0
 41
1.0
  0
SPLINE
  5
A5
330
1F
100
AcDbEntity
  8
Miura_Table_9553-01_2D
100
AcDbSpline
210
0.0
220
0.0
230
1.0
 70
    24
 71
     2
 72
     6
 73
     3
 74
     0
 42
0.0000000001
 43
0.0000000001
 40
-0.0160983755549751
 40
-0.0160983755549751
 40
-0.0160983755549751
 40
0.0
 40
0.0
 40
0.0
 10
1992.517255713548
 20
1219.326834301421
 30
0.0
 10
1992.50920652577
 20
1219.326834301468
 30
0.0
 10
1992.501157337993
 20
1219.326834301516
 30
0.0
  0
SPLINE
  5
A6
330
1F
100
AcDbEntity
  8
Miura_Table_9553-01_2D
100
AcDbSpline
210
0.0
220
0.0
230
1.0
 70
    24
 71
     2
 72
     6
 73
     3
 74
     0
 42
0.0000000001
 43
0.0000000001
 40
-8.348680839593043
 40
-8.348680839593043
 40
-8.348680839593043
 40
0.0
 40
0.0
 40
0.0
 10
1992.501157337993
 20
1219.326834301516
 30
0.0
 10
1988.326816918197
 20
1219.32683431595
 30
0.0
 10
1984.152476498399
 20
1219.326834330384
 30
0.0
  0
SPLINE
  5
A7
330
1F
100
AcDbEntity
  8
Miura_Table_9553-01_2D
100
AcDbSpline
210
0.0
220
0.0
230
1.0
 70
    12
 71
     2
 72
     6
 73
     3
 74
     0
 42
0.0000000001
 43
0.0000000001
 40
-3.332521385645804
 40
-3.332521385645804
 40
-3.332521385645804
 40
0.0
 40
0.0
 40
0.0
 10
1984.152476498399
 20
1219.326834330384
 30
0.0
 41
1.0
 10
1982.486215805577
 20
1219.326834350669
 30
0.0
 41
0.9999999999999998
 10
1980.819955112754
 20
1219.326834295987
 30
0.0
 41
1.0
  0
ARC
  5
A8
330
1F
100
AcDbEntity
  8
Miura_Table_9553-01_2D
100
AcDbCircle
 10
1990.815549738483
 20
1219.926170692534
 30
0.0
 40
10.01354662635185
100
AcDbArc
 50
180.0
 51
183.4313498469807
  0
SPLINE
  5
A9
330
1F
100
AcDbEntity
  8
Miura_Table_9553-01_2D
100
AcDbSpline
210
0.0
220
0.0
230
1.0
 70
     8
 71
     3
 72
    12
 73
     8
 74
     0
 42
0.0000000001
 43
0.0000000001
 40
0.0
 40
0.0
 40
0.0
 40
0.0
 40
0.1167120639292131
 40
0.2430944609352435
 40
0.5000268890606814
 40
0.7758895689378357
 40
1.056331722181715
 40
1.056331722181715
 40
1.056331722181715
 40
1.056331722181715
 10
1014.739401509283
 20
1219.32855766075
 30
0.0
 10
1014.778266213844
 20
1219.326989452654
 30
0.0
 10
1014.858990773717
 20
1219.317232058168
 30
0.0
 10
1015.019587355835
 20
1219.270723803199
 30
0.0
 10
1015.212435816552
 20
1219.159608813632
 30
0.0
 10
1015.396639966335
 20
1218.956753462479
 30
0.0
 10
1015.480594724984
 20
1218.78965757887
 30
0.0
 10
1015.511184808815
 20
1218.701305286703
 30
0.0
  0
SPLINE
  5
AA
330
1F
100
AcDbEntity
  8
Miura_Table_9553-01_2D
100
AcDbSpline
210
0.0
220
0.0
230
1.0
 70
    24
 71
     2
 72
     6
 73
     3
 74
     0
 42
0.0000000001
 43
0.0000000001
 40
0.0
 40
0.0
 40
0.0
 40
0.0003644189914382
 40
0.0003644189914382
 40
0.0003644189914382
 10
1002.675732042326
 20
1224.329221176072
 30
0.0
 10
1002.67554983283
 20
1224.329221176047
 30
0.0
 10
1002.675367623335
 20
1224.329221176022
 30
0.0
  0
POLYLINE
  5
AB
330
1F
100
AcDbEntity
  8
Miura_Table_9553-01_2D
100
AcDb2dPolyline
 66
     1
 10
0.0
 20
0.0
 30
0.0
  0
VERTEX
  5
AC
330
AB
100
AcDbEntity
  8
Miura_Table_9553-01_2D
100
AcDbVertex
100
AcDb2dVertex
 10
664.9900917759918
 20
851.6243021681468
 30
0.0
  0
VERTEX
  5
AD
330
AB
100
AcDbEntity
  8
Miura_Table_9553-01_2D
100
AcDbVertex
100
AcDb2dVertex
 10
707.6286311289008
 20
851.6243020772598
 30
0.0
  0
SEQEND
  5
AE
330
AB
100
AcDbEntity
  8
Miura_Table_9553-01_2D
  0
SPLINE
  5
AF
330
1F
100
AcDbEntity
  8
Miura_Table_9553-01_2D
100
AcDbSpline
210
0.0
220
0.0
230
1.0
 70
    12
 71
     2
 72
     6
 73
     3
 74
     0
 42
0.0000000001
 43
0.0000000001
 40
0.0
 40
0.0
 40
0.0
 40
1.517675704074519
 40
1.517675704074519
 40
1.517675704074519
 10
1016.407306793761
 20
1219.328701186577
 30
0.0
 41
1.0
 10
1015.459054598252
 20
1219.297559958939
 30
0.0
 41
0.7256366645658146
 10
1015.439593330974
 20
1218.349518256394
 30
0.0
 41
1.0
  0
SPLINE
  5
B0
330
1F
100
AcDbEntity
  8
Miura_Table_9553-01_2D
100
AcDbSpline
210
0.0
220
0.0
230
1.0
 70
    12
 71
     2
 72
     6
 73
     3
 74
     0
 42
0.0000000001
 43
0.0000000001
 40
0.0
 40
0.0
 40
0.0
 40
4.338894157400503
 40
4.338894157400503
 40
4.338894157400503
 10
1015.439593330974
 20
1218.349518256394
 30
0.0
 41
1.0
 10
1015.395013294851
 20
1216.177833713002
 30
0.0
 41
0.9999577101164851
 10
1015.31040809049
 20
1214.009975787672
 30
0.0
 41
1.0
  0
SPLINE
  5
B1
330
1F
100
AcDbEntity
  8
Miura_Table_9553-01_2D
100
AcDbSpline
210
0.0
220
0.0
230
1.0
 70
     8
 71
     3
 72
    13
 73
     9
 74
     0
 42
0.0000000001
 43
0.0000000001
 40
0.0
 40
0.0
 40
0.0
 40
0.0
 40
1.195776873000196
 40
2.341423735031693
 40
4.878196780698156
 40
8.059055609734553
 40
9.89647813407859
 40
11.23169972175378
 40
11.23169972175378
 40
11.23169972175378
 40
11.23169972175378
 10
1015.31040809049
 20
1214.009975787672
 30
0.0
 10
1015.294864018489
 20
1213.611686581538
 30
0.0
 10
1015.262936106598
 20
1212.831864076403
 30
0.0
 10
1015.189193712481
 20
1211.20746620513
 30
0.0
 10
1015.070571057559
 20
1208.922767544776
 30
0.0
 10
1014.923012085245
 20
1206.408732961386
 30
0.0
 10
1014.792570391006
 20
1204.294920097833
 30
0.0
 10
1014.724665109158
 20
1203.234490523495
 30
0.0
 10
1014.694764081708
 20
1202.79042177328
 30
0.0
  0
SPLINE
  5
B2
330
1F
100
AcDbEntity
  8
Miura_Table_9553-01_2D
100
AcDbSpline
210
0.0
220
0.0
230
1.0
 70
     8
 71
     3
 72
    46
 73
    42
 74
     0
 42
0.0000000001
 43
0.0000000001
 40
0.0
 40
0.0
 40
0.0
 40
0.0
 40
4.445528572919531
 40
9.136184748431084
 40
13.56629843505467
 40
20.52288534708523
 40
22.80023416032957
 40
26.47397545349463
 40
30.12593374789432
 40
33.12390876023884
 40
33.12390876023884
 40
33.12390876023884
 40
33.44213680694137
 40
33.79291129403629
 40
34.65617602833069
 40
35.95951821029372
 40
35.95951821029372
 40
35.95951821029372
 40
37.26413056451781
 40
38.4014712048069
 40
40.57038699906814
 40
42.7593198436251
 40
44.84110739718989
 40
45.77561526079327
 40
46.65453737284929
 40
47.46896338621528
 40
48.21895529454341
 40
48.90499283523491
 40
49.56381445895246
 40
50.22094840567009
 40
51.02557524063457
 40
51.02557524063457
 40
51.02557524063457
 40
56.82679662646954
 40
56.82679662646954
 40
56.82679662646954
 40
57.82809886771776
 40
58.78296253335561
 40
60.89975999567615
 40
62.90994723231162
 40
65.188593675824
 40
65.188593675824
 40
65.188593675824
 40
65.188593675824
 10
1014.694764081709
 20
1202.79042177328
 30
0.0
 10
1014.595210818285
 20
1201.311927653123
 30
0.0
 10
1014.375459452784
 20
1198.274434798827
 30
0.0
 10
1014.008559796355
 20
1193.767208391434
 30
0.0
 10
1013.537607544733
 20
1188.428800839097
 30
0.0
 10
1013.113467755888
 20
1183.893901621351
 30
0.0
 10
1012.723779676935
 20
1179.609021601877
 30
0.0
 10
1012.447745893282
 20
1176.41991570399
 30
0.0
 10
1012.190194267306
 20
1172.988228074455
 30
0.0
 10
1012.068483278799
 20
1170.771445867947
 30
0.0
 10
1012.03024658139
 20
1169.772839473379
 30
0.0
 10
1012.026187933363
 20
1169.666842037719
 30
0.0
 10
1012.018104293329
 20
1169.443984526227
 30
0.0
 10
1012.003190152931
 20
1168.933447486501
 30
0.0
 10
1011.982024881061
 20
1168.094579591967
 30
0.0
 10
1011.973422673494
 20
1167.372399027011
 30
0.0
 10
1011.973465210948
 20
1166.937944661841
 30
0.0
 10
1011.973076891882
 20
1166.503108040507
 30
0.0
 10
1011.983518702312
 20
1165.688930610026
 30
0.0
 10
1012.081127003214
 20
1164.154594026661
 30
0.0
 10
1012.361391601227
 20
1162.340723939022
 30
0.0
 10
1012.961435714246
 20
1160.275018373478
 30
0.0
 10
1013.666432506095
 20
1158.684611907672
 30
0.0
 10
1014.333573217732
 20
1157.569000638608
 30
0.0
 10
1014.849773326149
 20
1156.860216084925
 30
0.0
 10
1015.39606960753
 20
1156.254329939198
 30
0.0
 10
1015.964580327844
 20
1155.762384674419
 30
0.0
 10
1016.553244694948
 20
1155.383283010594
 30
0.0
 10
1017.165049756979
 20
1155.111500689196
 30
0.0
 10
1017.849740663056
 20
1154.928185475771
 30
0.0
 10
1018.334386279302
 20
1154.869405285116
 30
0.0
 10
1018.60081210822
 20
1154.840009516854
 30
0.0
 10
1020.523512594066
 20
1154.626013244063
 30
0.0
 10
1022.733764259742
 20
1153.728369668875
 30
0.0
 10
1023.683935189127
 20
1152.044293325313
 30
0.0
 10
1023.84759045645
 20
1151.753403141918
 30
0.0
 10
1024.166519084893
 20
1151.184662166638
 30
0.0
 10
1024.821177039216
 20
1149.995259315904
 30
0.0
 10
1025.623351171089
 20
1148.503256806475
 30
0.0
 10
1026.6153765616
 20
1146.612453114785
 30
0.0
 10
1027.297639061121
 20
1145.277189903936
 30
0.0
 10
1027.637316526132
 20
1144.597834973489
 30
0.0
  0
SPLINE
  5
B3
330
1F
100
AcDbEntity
  8
Miura_Table_9553-01_2D
100
AcDbSpline
210
0.0
220
0.0
230
1.0
 70
    24
 71
     2
 72
     6
 73
     3
 74
     0
 42
0.0000000001
 43
0.0000000001
 40
0.0
 40
0.0
 40
0.0
 40
327.5547231258826
 40
327.5547231258826
 40
327.5547231258826
 10
1027.637316526132
 20
1144.597834973489
 30
0.0
 10
1100.880779215544
 20
998.1109095030463
 30
0.0
 10
1174.124241904956
 20
851.6239840326033
 30
0.0
  0
LINE
  5
B4
330
1F
100
AcDbEntity
  8
Miura_Table_9553-01_2D
100
AcDbLine
 10
1174.124241904956
 20
851.6239840326033
 30
0.0
 11
1222.592166262468
 21
851.6244476394433
 31
0.0
  0
SPLINE
  5
B5
330
1F
100
AcDbEntity
  8
Miura_Table_9553-01_2D
100
AcDbSpline
210
0.0
220
0.0
230
1.0
 70
    24
 71
     2
 72
     6
 73
     3
 74
     0
 42
0.0000000001
 43
0.0000000001
 40
0.0
 40
0.0
 40
0.0
 40
338.0425444558308
 40
338.0425444558308
 40
338.0425444558308
 10
1222.592166262468
 20
851.6244476394433
 30
0.0
 10
1147.003555431266
 20
1002.801669396401
 30
0.0
 10
1071.414944600065
 20
1153.978891153358
 30
0.0
  0
SPLINE
  5
B6
330
1F
100
AcDbEntity
  8
Miura_Table_9553-01_2D
100
AcDbSpline
210
0.0
220
0.0
230
1.0
 70
     8
 71
     3
 72
    15
 73
    11
 74
     0
 42
0.0000000001
 43
0.0000000001
 40
0.0
 40
0.0
 40
0.0
 40
0.0
 40
2.804057442577903
 40
5.813535061115351
 40
7.520094063378131
 40
12.01795169840552
 40
16.91927281030366
 40
18.14949344777262
 40
19.34253087904432
 40
21.65307934478401
 40
21.65307934478401
 40
21.65307934478401
 40
21.65307934478401
 10
1071.414944600065
 20
1153.978891153358
 30
0.0
 10
1070.996942753744
 20
1154.814894846523
 30
0.0
 10
1070.095614334652
 20
1156.623974922188
 30
0.0
 10
1068.970136314996
 20
1158.863788620414
 30
0.0
 10
1067.602656761115
 20
1161.613889436841
 30
0.0
 10
1065.993691569052
 20
1164.947989873289
 30
0.0
 10
1064.5136906921
 20
1168.16745284364
 30
0.0
 10
1063.527387714475
 20
1170.40089938207
 30
0.0
 10
1062.895154233204
 20
1171.846673241541
 30
0.0
 10
1062.445373429109
 20
1172.924492330105
 30
0.0
 10
1062.145559206363
 20
1173.633915843364
 30
0.0
  0
SPLINE
  5
B7
330
1F
100
AcDbEntity
  8
Miura_Table_9553-01_2D
100
AcDbSpline
210
0.0
220
0.0
230
1.0
 70
    12
 71
     3
 72
    26
 73
    22
 74
     0
 42
0.0000000001
 43
0.0000000001
 40
-45.87114236150764
 40
-45.87114236150764
 40
-45.87114236150764
 40
-45.87114236150764
 40
-43.7482714319039
 40
-41.95073232195075
 40
-37.96290779321185
 40
-29.2091905711187
 40
-19.77032179938261
 40
-14.83888187793954
 40
-9.836376581035709
 40
-9.836376581035709
 40
-9.836376581035709
 40
-9.16749384238369
 40
-7.554830330056148
 40
-5.942166817728606
 40
-4.329503305401064
 40
-4.329503305401064
 40
-4.329503305401064
 40
0.0
 40
0.0
 40
0.0
 40
1.489429492300063
 40
1.489429492300063
 40
1.489429492300063
 40
1.489429492300063
 10
1062.145559206363
 20
1173.633915843364
 30
0.0
 41
1.0
 10
1061.870114818059
 20
1174.28567520244
 30
0.0
 41
1.0
 10
1061.338105205255
 20
1175.542369306523
 30
0.0
 41
1.0
 10
1060.377847814545
 20
1177.997397612762
 30
0.0
 41
1.0
 10
1058.777502563566
 20
1182.57360720968
 30
0.0
 41
1.0
 10
1056.788924581331
 20
1189.700296112434
 30
0.0
 41
1.0
 10
1055.247467862684
 20
1197.256839809909
 30
0.0
 41
1.0
 10
1054.251541858297
 20
1203.637813162556
 30
0.0
 41
1.0
 10
1053.840773608146
 20
1206.924010291995
 30
0.0
 41
1.0
 10
1053.65793276653
 20
1208.58142697977
 30
0.0
 41
1.0
 10
1053.633540006183
 20
1208.802542610735
 30
0.0
 41
1.0
 10
1053.551482792494
 20
1209.556840090684
 30
0.0
 41
1.0
 10
1053.418554239988
 20
1210.84415898168
 30
0.0
 41
1.0
 10
1053.266620732084
 20
1212.445911796645
 30
0.0
 41
1.0
 10
1053.176668937512
 20
1213.51407984314
 30
0.0
 41
1.0
 10
1053.134933295243
 20
1214.048503101348
 30
0.0
 41
1.0
 10
1053.022565284806
 20
1215.487371056692
 30
0.0
 41
0.9998874918685951
 10
1052.936649770046
 20
1216.928060505188
 30
0.0
 41
0.9998874918685951
 10
1052.877215749542
 20
1218.370085179004
 30
0.0
 41
1.0
 10
1052.854618832932
 20
1218.918345435114
 30
0.0
 41
0.8233637531700498
 10
1052.466560055971
 20
1219.306302023787
 30
0.0
 41
0.8233637531700498
 10
1051.918675156394
 20
1219.328373357754
 30
0.0
 41
1.0
  0
SPLINE
  5
B8
330
1F
100
AcDbEntity
  8
Miura_Table_9553-01_2D
100
AcDbSpline
210
0.0
220
0.0
230
1.0
 70
     8
 71
     3
 72
    13
 73
     9
 74
     0
 42
0.0000000001
 43
0.0000000001
 40
0.0
 40
0.0
 40
0.0
 40
0.0
 40
0.0876034865927682
 40
0.1633834879133184
 40
0.3033602437049218
 40
0.4266564189877515
 40
0.487622525187018
 40
0.5630401513763821
 40
0.5630401513763821
 40
0.5630401513763821
 40
0.5630401513763821
 10
1174.646786488564
 20
851.6238293304354
 30
0.0
 10
1174.617742658004
 20
851.6230948280263
 30
0.0
 10
1174.562847024327
 20
851.6189813006613
 30
0.0
 10
1174.465414380875
 20
851.5924061166133
 30
0.0
 10
1174.367889283121
 20
851.527165121902
 30
0.0
 10
1174.326114219002
 20
851.4211768012348
 30
0.0
 10
1174.341532134981
 20
851.3340370896052
 30
0.0
 10
1174.361166142504
 20
851.2933088172678
 30
0.0
 10
1174.372608716804
 20
851.2706982170389
 30
0.0
  0
SPLINE
  5
B9
330
1F
100
AcDbEntity
  8
Miura_Table_9553-01_2D
100
AcDbSpline
210
0.0
220
0.0
230
1.0
 70
    24
 71
     2
 72
     6
 73
     3
 74
     0
 42
0.0000000001
 43
0.0000000001
 40
0.0
 40
0.0
 40
0.0
 40
0.443128027777323
 40
0.443128027777323
 40
0.443128027777323
 10
1174.372608716804
 20
851.2706982170389
 30
0.0
 10
1174.471727433619
 20
851.0724595927563
 30
0.0
 10
1174.570846150435
 20
850.8742209684731
 30
0.0
  0
SPLINE
  5
BA
330
1F
100
AcDbEntity
  8
Miura_Table_9553-01_2D
100
AcDbSpline
210
0.0
220
0.0
230
1.0
 70
     8
 71
     3
 72
    14
 73
    10
 74
     0
 42
0.0000000001
 43
0.0000000001
 40
0.0
 40
0.0
 40
0.0
 40
0.0
 40
0.1878442759905428
 40
0.377592525096296
 40
0.6122387701456025
 40
0.8889786116689306
 40
1.581028401171428
 40
1.879577165562933
 40
2.132521340345824
 40
2.132521340345824
 40
2.132521340345824
 40
2.132521340345824
 10
1174.570846150435
 20
850.8742209684731
 30
0.0
 10
1174.598444328938
 20
850.8179715316597
 30
0.0
 10
1174.657695175174
 20
850.7065813113904
 30
0.0
 10
1174.776060822727
 20
850.5400060953361
 30
0.0
 10
1174.926789466561
 20
850.3612119855441
 30
0.0
 10
1175.204110962188
 20
850.0711857570482
 30
0.0
 10
1175.516004934631
 20
849.785688178551
 30
0.0
 10
1175.838301459115
 20
849.5248495975436
 30
0.0
 10
1175.98930530267
 20
849.4197047524879
 30
0.0
 10
1176.060436766199
 20
849.3742545005034
 30
0.0
  0
SPLINE
  5
BB
330
1F
100
AcDbEntity
  8
Miura_Table_9553-01_2D
100
AcDbSpline
210
0.0
220
0.0
230
1.0
 70
     8
 71
     3
 72
    11
 73
     7
 74
     0
 42
0.0000000001
 43
0.0000000001
 40
0.0
 40
0.0
 40
0.0
 40
0.0
 40
3.125176035128538
 40
6.095599655767289
 40
12.14563159808566
 40
24.32538406836998
 40
24.32538406836998
 40
24.32538406836998
 40
24.32538406836998
 10
1176.060436766199
 20
849.3742545005034
 30
0.0
 10
1176.933879085163
 20
848.8064576560812
 30
0.0
 10
1178.678056599451
 20
847.7611693702378
 30
0.0
 10
1182.292879715829
 20
845.9331033287273
 30
0.0
 10
1188.919408858512
 20
843.4250156312886
 30
0.0
 10
1194.995024873251
 20
842.5366941143654
 30
0.0
 10
1199.05507028434
 20
842.5370524524081
 30
0.0
  0
SPLINE
  5
BC
330
1F
100
AcDbEntity
  8
Miura_Table_9553-01_2D
100
AcDbSpline
210
0.0
220
0.0
230
1.0
 70
     8
 71
     3
 72
    12
 73
     8
 74
     0
 42
0.0000000001
 43
0.0000000001
 40
0.0
 40
0.0
 40
0.0
 40
0.0
 40
3.067510030199397
 40
6.111020822346612
 40
12.08884398209748
 40
18.2299956540746
 40
24.32566676622235
 40
24.32566676622235
 40
24.32566676622235
 40
24.32566676622235
 10
1199.05507028434
 20
842.5370524524081
 30
0.0
 10
1200.07758043045
 20
842.5369881907593
 30
0.0
 10
1202.114552077044
 20
842.6121777837821
 30
0.0
 10
1206.122758724536
 20
843.0515710825947
 30
0.0
 10
1211.071546591304
 20
844.1397348595584
 30
0.0
 10
1216.767693412405
 20
846.2876969440152
 30
0.0
 10
1220.346294102827
 20
848.2669142511808
 30
0.0
 10
1222.049879792313
 20
849.3743033603092
 30
0.0
  0
SPLINE
  5
BD
330
1F
100
AcDbEntity
  8
Miura_Table_9553-01_2D
100
AcDbSpline
210
0.0
220
0.0
230
1.0
 70
     8
 71
     3
 72
    16
 73
    12
 74
     0
 42
0.0000000001
 43
0.0000000001
 40
0.0
 40
0.0
 40
0.0
 40
0.0
 40
0.1493864394124331
 40
0.279355901656456
 40
0.5550513490148505
 40
0.8392020165335361
 40
1.095708427849607
 40
1.300439052038602
 40
1.480820944991986
 40
1.644774875639234
 40
1.839449949945526
 40
1.839449949945526
 40
1.839449949945526
 40
1.839449949945526
 10
1222.049879792313
 20
849.3743033603092
 30
0.0
 10
1222.091680916065
 20
849.401377716053
 30
0.0
 10
1222.169400959144
 20
849.4527435253898
 30
0.0
 10
1222.316219432027
 20
849.5655452373437
 30
0.0
 10
1222.483644082113
 20
849.7238398475836
 30
0.0
 10
1222.657272723025
 20
849.9340303818762
 30
0.0
 10
1222.788321590722
 20
850.1460313019817
 30
0.0
 10
1222.868276549213
 20
850.3453704643648
 30
0.0
 10
1222.896845806434
 20
850.5278255867045
 30
0.0
 10
1222.87093160363
 20
850.7078041149362
 30
0.0
 10
1222.818500171141
 20
850.816521656397
 30
0.0
 10
1222.789343492216
 20
850.8742947284574
 30
0.0
  0
SPLINE
  5
BE
330
1F
100
AcDbEntity
  8
Miura_Table_9553-01_2D
100
AcDbSpline
210
0.0
220
0.0
230
1.0
 70
    24
 71
     2
 72
     6
 73
     3
 74
     0
 42
0.0000000001
 43
0.0000000001
 40
0.0
 40
0.0
 40
0.0
 40
0.4432407273142657
 40
0.4432407273142657
 40
0.4432407273142657
 10
1222.789343492216
 20
850.8742947284574
 30
0.0
 10
1222.690223331476
 20
851.0725342713042
 30
0.0
 10
1222.591103170735
 20
851.2707738141513
 30
0.0
  0
SPLINE
  5
BF
330
1F
100
AcDbEntity
  8
Miura_Table_9553-01_2D
100
AcDbSpline
210
0.0
220
0.0
230
1.0
 70
     8
 71
     3
 72
    12
 73
     8
 74
     0
 42
0.0000000001
 43
0.0000000001
 40
0.0
 40
0.0
 40
0.0
 40
0.0
 40
0.0783339057735422
 40
0.1543752911000592
 40
0.3458434999895036
 40
0.5566067183729958
 40
0.745730808072604
 40
0.745730808072604
 40
0.745730808072604
 40
0.745730808072604
 10
1222.591103170735
 20
851.2707738141513
 30
0.0
 10
1222.579668938041
 20
851.2942154977237
 30
0.0
 10
1222.555049048004
 20
851.3396986087483
 30
0.0
 10
1222.478111407475
 20
851.4265423862077
 30
0.0
 10
1222.34616006208
 20
851.5179115441064
 30
0.0
 10
1222.165116574824
 20
851.5981722659592
 30
0.0
 10
1222.032743211342
 20
851.622055013834
 30
0.0
 10
1221.969690553795
 20
851.6236259209511
 30
0.0
  0
SPLINE
  5
C0
330
1F
100
AcDbEntity
  8
Miura_Table_9553-01_2D
100
AcDbSpline
210
0.0
220
0.0
230
1.0
 70
    12
 71
     3
 72
    54
 73
    50
 74
     0
 42
0.0000000001
 43
0.0000000001
 40
-36.3735092767428
 40
-36.3735092767428
 40
-36.3735092767428
 40
-36.3735092767428
 40
-35.65104266691848
 40
-35.51144398999158
 40
-35.26611209216915
 40
-35.10822082106449
 40
-35.01354362312179
 40
-34.93913335904487
 40
-34.75994055350136
 40
-34.55514104781033
 40
-34.31738447665442
 40
-34.04971475097287
 40
-33.6579291230507
 40
-33.23516828083971
 40
-32.29041859629452
 40
-31.25837170456729
 40
-30.19949178401347
 40
-30.19949178401347
 40
-30.19949178401347
 40
-29.4960952416352
 40
-29.4960952416352
 40
-28.79304492415562
 40
-28.79304492415562
 40
-28.79304492415562
 40
-20.11557317593713
 40
-20.11557317593713
 40
-20.11557317593713
 40
-8.532726005168029
 40
-8.532726005168029
 40
-8.532726005168029
 40
-8.268823246790324
 40
-8.268823246790324
 40
-8.268823246790324
 40
-7.12177540320921
 40
-7.12177540320921
 40
-7.12177540320921
 40
-5.332336009370442
 40
-3.594248314605103
 40
-2.749108168344542
 40
-1.884922955709098
 40
-1.047676823306014
 40
-0.6247475337379003
 40
-0.1840573543565883
 40
-0.1840573543565883
 40
-0.1840573543565883
 40
-0.0163079898344346
 40
-0.0163079898344346
 40
-0.0163079898344346
 40
0.0
 40
0.0
 40
0.0
 40
0.0
 10
1002.675520183544
 20
1224.329221176015
 30
0.0
 41
0.9999995248451568
 10
1002.916554247386
 20
1224.329226817667
 30
0.0
 41
0.9999995248451568
 10
1003.203909337921
 20
1224.329210542291
 30
0.0
 41
0.9999995248451568
 10
1003.573030649438
 20
1224.329330203329
 30
0.0
 41
0.9999995248451568
 10
1003.754036568271
 20
1224.328553236604
 30
0.0
 41
0.9999995248451568
 10
1003.919863639467
 20
1224.330469435921
 30
0.0
 41
0.9999995248451568
 10
1004.029099959305
 20
1224.327661524079
 30
0.0
 41
0.9999995248451568
 10
1004.143120697556
 20
1224.304279041832
 30
0.0
 41
0.9999995248451568
 10
1004.285730778359
 20
1224.246867671426
 30
0.0
 41
0.9999995248451568
 10
1004.45952502377
 20
1224.13253967868
 30
0.0
 41
0.9999995248451568
 10
1004.635879832353
 20
1223.973850405679
 30
0.0
 41
0.9999995248451568
 10
1004.832793972855
 20
1223.748102973651
 30
0.0
 41
0.9999995248451568
 10
1005.038216739451
 20
1223.45096478669
 30
0.0
 41
0.9999995248451568
 10
1005.321381697188
 20
1222.936516133202
 30
0.0
 41
0.9999995248451568
 10
1005.617359680395
 20
1222.191265700194
 30
0.0
 41
0.9999995248451568
 10
1005.866854322226
 20
1221.208708800243
 30
0.0
 41
0.9999995248451568
 10
1005.960971091192
 20
1220.51711774375
 30
0.0
 41
0.9999995248451568
 10
1005.989941612627
 20
1220.165330815212
 30
0.0
 41
0.9999995248451568
 10
1006.009281388291
 20
1219.931457354793
 30
0.0
 41
0.9999995248451568
 10
1006.069036840656
 20
1219.719461234003
 30
0.0
 41
0.9999995248451568
 10
1006.253411803084
 20
1219.412933855051
 30
0.0
 41
0.9999995248451568
 10
1006.37184445787
 20
1219.329215822748
 30
0.0
 41
0.9999995248451568
 10
1006.497774753076
 20
1219.329221169852
 30
0.0
 41
0.9999995248451568
 10
1009.390265335816
 20
1219.329221187813
 30
0.0
 41
0.9999995248451568
 10
1012.282755918556
 20
1219.329221193146
 30
0.0
 41
0.9999995248451568
 10
1015.175246501295
 20
1219.329221185852
 30
0.0
 41
0.9999995248451568
 10
1019.036195558217
 20
1219.329221171173
 30
0.0
 41
0.9999995248451568
 10
1022.897144615141
 20
1219.329221156493
 30
0.0
 41
0.9999995248451568
 10
1026.758093672062
 20
1219.329221141812
 30
0.0
 41
0.9999995248451568
 10
1026.846315691661
 20
1219.329205509861
 30
0.0
 41
0.9942088042594845
 10
1026.933728655373
 20
1219.340958689876
 30
0.0
 41
0.9942086996797163
 10
1027.018814037028
 20
1219.364276510932
 30
0.0
 41
0.9999992111058521
 10
1027.409231117044
 20
1219.471680863257
 30
0.0
 41
0.8933366331508512
 10
1027.679097524466
 20
1219.773702924338
 30
0.0
 41
0.8933368961155672
 10
1027.742059201339
 20
1220.173698947475
 30
0.0
 41
1.0
 10
1027.834941311952
 20
1220.762717093143
 30
0.0
 41
1.0
 10
1028.211744372139
 20
1221.89502331327
 30
0.0
 41
1.0
 10
1029.132891462945
 20
1223.054761007603
 30
0.0
 41
1.0
 10
1030.070300052396
 20
1223.728579886695
 30
0.0
 41
1.0
 10
1030.842656299032
 20
1224.089356418441
 30
0.0
 41
1.0
 10
1031.531897083966
 20
1224.264842008071
 30
0.0
 41
1.0
 10
1032.095996834287
 20
1224.327788238562
 30
0.0
 41
1.0
 10
1032.384192112225
 20
1224.330231339653
 30
0.0
 41
1.0
 10
1032.53103705815
 20
1224.329758263425
 30
0.0
 41
1.0
 10
1032.586953511954
 20
1224.329758924046
 30
0.0
 41
0.999999999998273
 10
1032.642869973226
 20
1224.329720807144
 30
0.0
 41
0.999999999998273
 10
1032.698786441969
 20
1224.329643912716
 30
0.0
 41
1.0
 10
1032.704222447334
 20
1224.329556468367
 30
0.0
 41
0.9999999998057724
 10
1032.693663892767
 20
1224.329294421195
 30
0.0
 41
0.9999999998057724
 10
1032.699099778373
 20
1224.329329160829
 30
0.0
 41
1.0
  0
SPLINE
  5
C1
330
1F
100
AcDbEntity
  8
Miura_Table_9553-01_2D
100
AcDbSpline
210
0.0
220
0.0
230
1.0
 70
    12
 71
     2
 72
     6
 73
     3
 74
     0
 42
0.0000000001
 43
0.0000000001
 40
0.0
 40
0.0
 40
0.0
 40
0.0159951658560524
 40
0.0159951658560524
 40
0.0159951658560524
 10
1032.699099778373
 20
1224.329329160829
 30
0.0
 41
1.0
 10
1032.707097198386
 20
1224.329380270706
 30
0.0
 41
0.9999999249432411
 10
1032.715094655603
 20
1224.329425183452
 30
0.0
 41
1.0
  0
SPLINE
  5
C2
330
1F
100
AcDbEntity
  8
Miura_Table_9553-01_2D
100
AcDbSpline
210
0.0
220
0.0
230
1.0
 70
    12
 71
     2
 72
     6
 73
     3
 74
     0
 42
0.0000000001
 43
0.0000000001
 40
0.0
 40
0.0
 40
0.0
 40
7.460028192515835
 40
7.460028192515835
 40
7.460028192515835
 10
1032.715094655603
 20
1224.329425183452
 30
0.0
 41
1.0
 10
1036.445108743301
 20
1224.329125203158
 30
0.0
 41
0.9999999985914357
 10
1040.175122841827
 20
1224.329221176016
 30
0.0
 41
1.0
  0
SPLINE
  5
C3
330
1F
100
AcDbEntity
  8
Miura_Table_9553-01_2D
100
AcDbSpline
210
0.0
220
0.0
230
1.0
 70
    12
 71
     2
 72
     6
 73
     3
 74
     0
 42
0.0000000001
 43
0.0000000001
 40
-5.848452852216105
 40
-5.848452852216105
 40
-5.848452852216105
 40
0.0
 40
0.0
 40
0.0
 10
1040.175122841827
 20
1224.329221176016
 30
0.0
 41
1.0
 10
1043.099349268362
 20
1224.329263834905
 30
0.0
 41
0.9999999996213539
 10
1046.023575692816
 20
1224.32914555056
 30
0.0
 41
1.0
  0
SPLINE
  5
C4
330
1F
100
AcDbEntity
  8
Miura_Table_9553-01_2D
100
AcDbSpline
210
0.0
220
0.0
230
1.0
 70
     8
 71
     3
 72
    15
 73
    11
 74
     0
 42
0.0000000001
 43
0.0000000001
 40
-5.517215510995962
 40
-5.517215510995962
 40
-5.517215510995962
 40
-5.517215510995962
 40
-4.927738640847089
 40
-4.318670834827658
 40
-3.704388331691281
 40
-3.058194976662103
 40
-2.377907408399816
 40
-1.641856638493278
 40
-0.8506135065108557
 40
0.0
 40
0.0
 40
0.0
 40
0.0
 10
1046.023575692816
 20
1224.32914555056
 30
0.0
 10
1046.218431463759
 20
1224.303815707769
 30
0.0
 10
1046.609489233311
 20
1224.212891457285
 30
0.0
 10
1047.161314569727
 20
1223.958841426625
 30
0.0
 10
1047.666871510495
 20
1223.589655704556
 30
0.0
 10
1048.112619124233
 20
1223.11736584148
 30
0.0
 10
1048.497358351416
 20
1222.545181150593
 30
0.0
 10
1048.817342061942
 20
1221.880725906442
 30
0.0
 10
1049.072115413235
 20
1221.128856589701
 30
0.0
 10
1049.19392896974
 20
1220.586498028023
 30
0.0
 10
1049.243894914964
 20
1220.307417913494
 30
0.0
  0
SPLINE
  5
C5
330
1F
100
AcDbEntity
  8
Miura_Table_9553-01_2D
100
AcDbSpline
210
0.0
220
0.0
230
1.0
 70
    12
 71
     2
 72
     6
 73
     3
 74
     0
 42
0.0000000001
 43
0.0000000001
 40
-0.3761526883931789
 40
-0.3761526883931789
 40
-0.3761526883931789
 40
0.0
 40
0.0
 40
0.0
 10
1049.243894914964
 20
1220.307417913494
 30
0.0
 41
1.0
 10
1049.277040704164
 20
1220.122285207512
 30
0.0
 41
0.9999989203661542
 10
1049.310730434031
 20
1219.937250712708
 30
0.0
 41
1.0
  0
SPLINE
  5
C6
330
1F
100
AcDbEntity
  8
Miura_Table_9553-01_2D
100
AcDbSpline
210
0.0
220
0.0
230
1.0
 70
     8
 71
     3
 72
    11
 73
     7
 74
     0
 42
0.0000000001
 43
0.0000000001
 40
0.0081002585430663
 40
0.0081002585430663
 40
0.0081002585430663
 40
0.0081002585430663
 40
0.7699006330026301
 40
0.7699006330026301
 40
0.7699006330026301
 40
3.675276053828606
 40
3.675276053828606
 40
3.675276053828606
 40
3.675276053828606
 10
1049.310730434031
 20
1219.937250712708
 30
0.0
 10
1049.35625188134
 20
1219.68723273872
 30
0.0
 10
1049.515798232313
 20
1219.329221140767
 30
0.0
 10
1049.769685607707
 20
1219.329221141812
 30
0.0
 10
1050.738144081316
 20
1219.329221145802
 30
0.0
 10
1051.706602554924
 20
1219.329221149792
 30
0.0
 10
1052.675061028533
 20
1219.329221159766
 30
0.0
  0
SPLINE
  5
C7
330
1F
100
AcDbEntity
  8
Miura_Table_9553-01_2D
100
AcDbSpline
210
0.0
220
0.0
230
1.0
 70
     8
 71
     3
 72
    20
 73
    16
 74
     0
 42
0.0000000001
 43
0.0000000001
 40
-431.4835608872114
 40
-431.4835608872114
 40
-431.4835608872114
 40
-431.4835608872114
 40
-25.59720475510172
 40
-25.59720475510172
 40
-25.59720475510172
 40
-23.041181434814
 40
-22.35224480279041
 40
-22.35224480279041
 40
-22.35224480279041
 40
-20.7744918917307
 40
-0.3474546757883483
 40
-0.3474546757883483
 40
-0.3474546757883483
 40
0.9942450456762051
 40
2.821104559269469
 40
2.821104559269469
 40
2.821104559269469
 40
2.821104559269469
 10
707.6286311289008
 20
851.6243020772598
 30
0.0
 10
803.2969553166605
 20
947.2926411568073
 30
0.0
 10
898.9652795044216
 20
1042.960980236354
 30
0.0
 10
994.6336036921804
 20
1138.629319315901
 30
0.0
 10
995.2406254458896
 20
1139.227077644547
 30
0.0
 10
996.0145788317952
 20
1139.983040083629
 30
0.0
 10
996.808011551808
 20
1140.718168781232
 30
0.0
 10
996.9772921014639
 20
1140.873343616366
 30
0.0
 10
997.3647264138582
 20
1141.228494020077
 30
0.0
 10
1002.860735105188
 20
1146.068513758604
 30
0.0
 10
1008.170398482004
 20
1151.699918549482
 30
0.0
 10
1014.525124156038
 20
1154.140891029167
 30
0.0
 10
1014.94254599998
 20
1154.301230796098
 30
0.0
 10
1015.957753235547
 20
1154.603032174829
 30
0.0
 10
1017.024713776756
 20
1154.744339448537
 30
0.0
 10
1017.632418988587
 20
1154.780706948401
 30
0.0
  0
SPLINE
  5
C8
330
1F
100
AcDbEntity
  8
Miura_Table_9553-01_2D
100
AcDbSpline
210
0.0
220
0.0
230
1.0
 70
    12
 71
     2
 72
     6
 73
     3
 74
     0
 42
0.0000000001
 43
0.0000000001
 40
0.0
 40
0.0
 40
0.0
 40
0.4549953359630086
 40
0.4549953359630086
 40
0.4549953359630086
 10
1017.632418988587
 20
1154.780706948402
 30
0.0
 41
1.0
 10
1017.86351166443
 20
1154.794536454375
 30
0.0
 41
0.9742292604962512
 10
1018.065011584142
 20
1154.908522692229
 30
0.0
 41
1.0
  0
SPLINE
  5
C9
330
1F
100
AcDbEntity
  8
Miura_Table_9553-01_2D
100
AcDbSpline
210
0.0
220
0.0
230
1.0
 70
    12
 71
     2
 72
     6
 73
     3
 74
     0
 42
0.0000000001
 43
0.0000000001
 40
0.0
 40
0.0
 40
0.0
 40
1.347660071043663
 40
1.347660071043663
 40
1.347660071043663
 10
1003.323524976017
 20
1224.329221175739
 30
0.0
 41
1.0
 10
1002.545011916447
 20
1224.151702200773
 30
0.0
 41
0.7814532184921709
 10
1002.54580917935
 20
1223.353206781325
 30
0.0
 41
1.0
  0
SPLINE
  5
CA
330
1F
100
AcDbEntity
  8
Miura_Table_9553-01_2D
100
AcDbSpline
210
0.0
220
0.0
230
1.0
 70
     8
 71
     3
 72
    13
 73
     9
 74
     0
 42
0.0000000001
 43
0.0000000001
 40
0.0
 40
0.0
 40
0.0
 40
0.0
 40
3.162722799211981
 40
5.963232700855801
 40
11.82659241116913
 40
23.58923876696889
 40
35.36859962543459
 40
47.14230545140192
 40
47.14230545140192
 40
47.14230545140192
 40
47.14230545140192
 10
1002.54580917935
 20
1223.353206781325
 30
0.0
 10
1002.548013413392
 20
1222.299037954946
 30
0.0
 10
1002.539293918915
 20
1220.310908652631
 30
0.0
 10
1002.364182980942
 20
1216.371969166913
 30
0.0
 10
1001.696773357466
 20
1209.591351220569
 30
0.0
 10
999.6632873634426
 20
1199.975658501215
 30
0.0
 10
995.5546939678336
 20
1188.909970551333
 30
0.0
 10
991.7616194358583
 20
1182.011681114092
 30
0.0
 10
989.6229335806832
 20
1178.721068032123
 30
0.0
  0
SPLINE
  5
CB
330
1F
100
AcDbEntity
  8
Miura_Table_9553-01_2D
100
AcDbSpline
210
0.0
220
0.0
230
1.0
 70
     8
 71
     5
 72
    12
 73
     6
 74
     0
 42
0.0000000001
 43
0.0000000001
 40
0.0
 40
0.0
 40
0.0
 40
0.0
 40
0.0
 40
0.0
 40
1.0
 40
1.0
 40
1.0
 40
1.0
 40
1.0
 40
1.0
 10
989.6229335806832
 20
1178.721068032123
 30
0.0
 10
988.3048075031604
 20
1176.692980127635
 30
0.0
 10
986.9098819432732
 20
1174.714806923698
 30
0.0
 10
985.4276711156938
 20
1172.786848866097
 30
0.0
 10
983.8960821885843
 20
1170.911665382715
 30
0.0
 10
982.2845881969772
 20
1169.107868271177
 30
0.0
  0
SPLINE
  5
CC
330
1F
100
AcDbEntity
  8
Miura_Table_9553-01_2D
100
AcDbSpline
210
0.0
220
0.0
230
1.0
 70
     8
 71
     3
 72
    14
 73
    10
 74
     0
 42
0.0000000001
 43
0.0000000001
 40
0.0
 40
0.0
 40
0.0
 40
0.0
 40
0.9891480038174151
 40
2.048682505589698
 40
4.284630339927826
 40
5.914186096750434
 40
6.608070935285521
 40
9.47879807401191
 40
12.82201302314979
 40
12.82201302314979
 40
12.82201302314979
 40
12.82201302314979
 10
982.2845881969772
 20
1169.107868271177
 30
0.0
 10
982.0649180379406
 20
1168.861984389249
 30
0.0
 10
981.6062638499172
 20
1168.356025400281
 30
0.0
 10
980.6341069676076
 20
1167.309705117749
 30
0.0
 10
979.4962803968903
 20
1166.126173322755
 30
0.0
 10
978.4256278361777
 20
1165.047491458692
 30
0.0
 10
977.1987183727816
 20
1163.82585607138
 30
0.0
 10
975.5625245784496
 20
1162.205694425187
 30
0.0
 10
974.1021939369877
 20
1160.736730435528
 30
0.0
 10
973.3143566000473
 20
1159.948566390337
 30
0.0
  0
SPLINE
  5
CD
330
1F
100
AcDbEntity
  8
Miura_Table_9553-01_2D
100
AcDbSpline
210
0.0
220
0.0
230
1.0
 70
    24
 71
     2
 72
     6
 73
     3
 74
     0
 42
0.0000000001
 43
0.0000000001
 40
0.0
 40
0.0
 40
0.0
 40
436.0363564973099
 40
436.0363564973099
 40
436.0363564973099
 10
973.3143566000473
 20
1159.948566390337
 30
0.0
 10
819.1522241880194
 20
1005.786434279242
 30
0.0
 10
664.9900917759918
 20
851.6243021681468
 30
0.0
  0
SPLINE
  5
CE
330
1F
100
AcDbEntity
  8
Miura_Table_9553-01_2D
100
AcDbSpline
210
0.0
220
0.0
230
1.0
 70
    12
 71
     5
 72
    12
 73
     6
 74
     0
 42
0.0000000001
 43
0.0000000001
 40
0.0589558208107204
 40
0.0589558208107204
 40
0.0589558208107204
 40
0.0589558208107204
 40
0.0589558208107204
 40
0.0589558208107204
 40
0.9432931329715263
 40
0.9432931329715263
 40
0.9432931329715263
 40
0.9432931329715263
 40
0.9432931329715263
 40
0.9432931329715263
 10
665.6603582709561
 20
851.6238961631307
 30
0.0
 41
1.0
 10
665.5311930096598
 20
851.620342090122
 30
0.0
 41
1.0
 10
665.3640419705772
 20
851.5916018584873
 30
0.0
 41
1.0
 10
665.0112673815795
 20
851.4333453334579
 30
0.0
 41
1.0
 10
664.9299690316895
 20
851.3520469835246
 30
0.0
 41
1.0
 10
664.8486706817041
 20
851.2707486335893
 30
0.0
 41
1.0
  0
SPLINE
  5
CF
330
1F
100
AcDbEntity
  8
Miura_Table_9553-01_2D
100
AcDbSpline
210
0.0
220
0.0
230
1.0
 70
    12
 71
     2
 72
     6
 73
     3
 74
     0
 42
0.0000000001
 43
0.0000000001
 40
-0.5606600998610313
 40
-0.5606600998610313
 40
-0.5606600998610313
 40
0.0
 40
0.0
 40
0.0
 10
664.8486706817041
 20
851.2707486335893
 30
0.0
 41
1.0
 10
664.6504474287034
 20
851.0725253281743
 30
0.0
 41
0.9999999999999912
 10
664.4522241233619
 20
850.8743020749243
 30
0.0
 41
1.0
  0
SPLINE
  5
D0
330
1F
100
AcDbEntity
  8
Miura_Table_9553-01_2D
100
AcDbSpline
210
0.0
220
0.0
230
1.0
 70
    12
 71
     5
 72
    12
 73
     6
 74
     0
 42
0.0000000001
 43
0.0000000001
 40
0.0
 40
0.0
 40
0.0
 40
0.0
 40
0.0
 40
0.0
 40
0.8739897245742341
 40
0.8739897245742341
 40
0.8739897245742341
 40
0.8739897245742341
 40
0.8739897245742341
 40
0.8739897245742341
 10
664.4522241233619
 20
850.8743020749243
 30
0.0
 41
1.0
 10
664.3440442730537
 20
850.7661222245804
 30
0.0
 41
1.0
 10
664.2358644227753
 20
850.6579423742453
 30
0.0
 41
1.0
 10
664.1624546945243
 20
850.5311988580299
 30
0.0
 41
1.0
 10
664.1293436612979
 20
850.3912794201104
 30
0.0
 41
1.0
 10
664.1311484989276
 20
850.2481209194618
 30
0.0
 41
1.0
  0
SPLINE
  5
D1
330
1F
100
AcDbEntity
  8
Miura_Table_9553-01_2D
100
AcDbSpline
210
0.0
220
0.0
230
1.0
 70
    12
 71
     2
 72
     6
 73
     3
 74
     0
 42
0.0000000001
 43
0.0000000001
 40
0.0
 40
0.0
 40
0.0
 40
0.2017970891503139
 40
0.2017970891503139
 40
0.2017970891503139
 10
664.1311484989276
 20
850.2481209194618
 30
0.0
 41
1.0
 10
664.1329397472324
 20
850.1467329651559
 30
0.0
 41
0.9925431650836243
 10
664.1592105538177
 20
850.048791295937
 30
0.0
 41
1.0
  0
SPLINE
  5
D2
330
1F
100
AcDbEntity
  8
Miura_Table_9553-01_2D
100
AcDbSpline
210
0.0
220
0.0
230
1.0
 70
     8
 71
     3
 72
    12
 73
     8
 74
     0
 42
0.0000000001
 43
0.0000000001
 40
0.0
 40
0.0
 40
0.0
 40
0.0
 40
0.0980656229116343
 40
0.2035418359053462
 40
0.4140500476026759
 40
0.6218932345208526
 40
0.8516964985803365
 40
0.8516964985803365
 40
0.8516964985803365
 40
0.8516964985803365
 10
664.1592105538177
 20
850.048791295937
 30
0.0
 10
664.1675359344973
 20
850.017164056859
 30
0.0
 10
664.1882004428364
 20
849.9525113610646
 30
0.0
 10
664.2429895730731
 20
849.8255550725582
 30
0.0
 10
664.3338984980949
 20
849.6758061601969
 30
0.0
 10
664.4759685799492
 20
849.5118951204203
 30
0.0
 10
664.5901255479405
 20
849.4202411331569
 30
0.0
 10
664.6517358610893
 20
849.373993446809
 30
0.0
  0
SPLINE
  5
D3
330
1F
100
AcDbEntity
  8
Miura_Table_9553-01_2D
100
AcDbSpline
210
0.0
220
0.0
230
1.0
 70
     8
 71
     3
 72
    11
 73
     7
 74
     0
 42
0.0000000001
 43
0.0000000001
 40
0.0
 40
0.0
 40
0.0
 40
0.0
 40
2.743424606184174
 40
5.414828345882175
 40
10.77592486299058
 40
21.43397361190056
 40
21.43397361190056
 40
21.43397361190056
 40
21.43397361190056
 10
664.6517358610893
 20
849.373993446809
 30
0.0
 10
665.3798351897587
 20
848.819997297474
 30
0.0
 10
666.8611003109129
 20
847.7855425263213
 30
0.0
 10
669.9643294921308
 20
845.9718421924899
 30
0.0
 10
675.6990683612468
 20
843.4842064736137
 30
0.0
 10
681.0293270507675
 20
842.5743324913188
 30
0.0
 10
684.5818789809566
 20
842.538732350715
 30
0.0
  0
SPLINE
  5
D4
330
1F
100
AcDbEntity
  8
Miura_Table_9553-01_2D
100
AcDbSpline
210
0.0
220
0.0
230
1.0
 70
    12
 71
     2
 72
     6
 73
     3
 74
     0
 42
0.0000000001
 43
0.0000000001
 40
0.0
 40
0.0
 40
0.0
 40
0.5724594400308637
 40
0.5724594400308637
 40
0.5724594400308637
 10
684.5818789809566
 20
842.538732350715
 30
0.0
 41
1.0
 10
684.8681013026992
 20
842.5358474090149
 30
0.0
 41
0.9999625809148067
 10
685.1543306969181
 20
842.5379148321445
 30
0.0
 41
1.0
  0
SPLINE
  5
D5
330
1F
100
AcDbEntity
  8
Miura_Table_9553-01_2D
100
AcDbSpline
210
0.0
220
0.0
230
1.0
 70
     8
 71
     3
 72
    12
 73
     8
 74
     0
 42
0.0000000001
 43
0.0000000001
 40
0.0
 40
0.0
 40
0.0
 40
0.0
 40
2.73591608993206
 40
5.43493518296994
 40
10.74089733582064
 40
16.11138166064301
 40
21.52862391160747
 40
21.52862391160747
 40
21.52862391160747
 40
21.52862391160747
 10
685.1543306969181
 20
842.5379148321445
 30
0.0
 10
686.0662915270388
 20
842.5444110408266
 30
0.0
 10
687.8772891578847
 20
842.6325076516533
 30
0.0
 10
691.4306443343642
 20
843.0937334418214
 30
0.0
 10
695.7657379870791
 20
844.194317879397
 30
0.0
 10
700.7042336942453
 20
846.3336776014893
 30
0.0
 10
703.7416149726124
 20
848.2803370280528
 30
0.0
 10
705.1791184249252
 20
849.3739926011423
 30
0.0
  0
SPLINE
  5
D6
330
1F
100
AcDbEntity
  8
Miura_Table_9553-01_2D
100
AcDbSpline
210
0.0
220
0.0
230
1.0
 70
     8
 71
     3
 72
    12
 73
     8
 74
     0
 42
0.0000000001
 43
0.0000000001
 40
0.0
 40
0.0
 40
0.0
 40
0.0
 40
0.198582148184335
 40
0.4558823293423835
 40
1.173126657775418
 40
1.79495840075012
 40
2.266661781302043
 40
2.266661781302043
 40
2.266661781302043
 40
2.266661781302043
 10
705.1791184249252
 20
849.3739926011423
 30
0.0
 10
705.2323362097015
 20
849.4142143934443
 30
0.0
 10
705.3518220736515
 20
849.5081266840415
 30
0.0
 10
705.6524429824843
 20
849.7582549160597
 30
0.0
 10
706.0543518137185
 20
850.1070221025772
 30
0.0
 10
706.5040165078665
 20
850.5097423029788
 30
0.0
 10
706.7673388568302
 20
850.7618868382687
 30
0.0
 10
706.8782926214782
 20
850.8739629377338
 30
0.0
  0
SPLINE
  5
D7
330
1F
100
AcDbEntity
  8
Miura_Table_9553-01_2D
100
AcDbSpline
210
0.0
220
0.0
230
1.0
 70
    24
 71
     2
 72
     6
 73
     3
 74
     0
 42
0.0000000001
 43
0.0000000001
 40
0.0
 40
0.0
 40
0.0
 40
0.0000154295494115
 40
0.0000154295494115
 40
0.0000154295494115
 10
706.8782926214782
 20
850.8739629377338
 30
0.0
 10
706.8781288700087
 20
850.8741323676861
 30
0.0
 10
706.8779651185387
 20
850.8743017976385
 30
0.0
  0
SPLINE
  5
D8
330
1F
100
AcDbEntity
  8
Miura_Table_9553-01_2D
100
AcDbSpline
210
0.0
220
0.0
230
1.0
 70
    12
 71
     3
 72
     8
 73
     4
 74
     0
 42
0.0000000001
 43
0.0000000001
 40
-0.2806769686640114
 40
-0.2806769686640114
 40
-0.2806769686640114
 40
-0.2806769686640114
 40
0.0
 40
0.0
 40
0.0
 40
0.0
 10
706.8779651185387
 20
850.8743017976385
 30
0.0
 41
1.0
 10
706.8784270141771
 20
850.8743020743535
 30
0.0
 41
1.0
 10
706.8786491019866
 20
850.8743020749154
 30
0.0
 41
1.0
 10
706.8786312413471
 20
850.8743020743851
 30
0.0
 41
1.0
  0
SPLINE
  5
D9
330
1F
100
AcDbEntity
  8
Miura_Table_9553-01_2D
100
AcDbSpline
210
0.0
220
0.0
230
1.0
 70
    24
 71
     2
 72
     6
 73
     3
 74
     0
 42
0.0000000001
 43
0.0000000001
 40
0.0
 40
0.0
 40
0.0
 40
0.5597389034968172
 40
0.5597389034968172
 40
0.5597389034968172
 10
706.8786312413471
 20
850.8743020743851
 30
0.0
 10
707.0763660459316
 20
851.0723624999169
 30
0.0
 10
707.2741008505166
 20
851.2704229254488
 30
0.0
  0
SPLINE
  5
DA
330
1F
100
AcDbEntity
  8
Miura_Table_9553-01_2D
100
AcDbSpline
210
0.0
220
0.0
230
1.0
 70
    12
 71
     3
 72
     8
 73
     4
 74
     0
 42
0.0000000001
 43
0.0000000001
 40
-0.2809667047186584
 40
-0.2809667047186584
 40
-0.2809667047186584
 40
-0.2809667047186584
 40
0.0
 40
0.0
 40
0.0
 40
0.0
 10
707.2741008505166
 20
851.2704229254488
 30
0.0
 41
1.0
 10
707.2747681404036
 20
851.2707455187312
 30
0.0
 41
1.0
 10
707.2750940043708
 20
851.2707485733811
 30
0.0
 41
1.0
 10
707.2750782041869
 20
851.2707486025822
 30
0.0
 41
1.0
  0
SPLINE
  5
DB
330
1F
100
AcDbEntity
  8
Miura_Table_9553-01_2D
100
AcDbSpline
210
0.0
220
0.0
230
1.0
 70
     8
 71
     3
 72
    13
 73
     9
 74
     0
 42
0.0000000001
 43
0.0000000001
 40
0.0
 40
0.0
 40
0.0
 40
0.0
 40
0.0759172290794612
 40
0.1358047706645862
 40
0.2547108411286943
 40
0.3727728321327626
 40
0.432687484436447
 40
0.5009095124335417
 40
0.5009095124335417
 40
0.5009095124335417
 40
0.5009095124335417
 10
707.2750782041869
 20
851.2707486025822
 30
0.0
 10
707.29302489747
 20
851.2885398818628
 30
0.0
 10
707.3247455643308
 20
851.3212049671885
 30
0.0
 10
707.366382969448
 20
851.3962404720837
 30
0.0
 10
707.3698675163325
 20
851.5004234811241
 30
0.0
 10
707.3082741036707
 20
851.5852890458617
 30
0.0
 10
707.2314361993297
 20
851.6182169948242
 30
0.0
 10
707.1888919022177
 20
851.6229935911697
 30
0.0
 10
707.1661152050949
 20
851.6238094385217
 30
0.0
  0
SPLINE
  5
DC
330
1F
100
AcDbEntity
  8
Miura_Table_9553-01_2D
100
AcDbSpline
210
0.0
220
0.0
230
1.0
 70
    12
 71
     2
 72
     6
 73
     3
 74
     0
 42
0.0000000001
 43
0.0000000001
 40
0.0
 40
0.0
 40
0.0
 40
1.53375001570948
 40
1.53375001570948
 40
1.53375001570948
 10
0.9627331693582164
 20
1219.328557511007
 30
0.0
 41
1.0
 10
-0.0001934744562425
 20
1219.292812432676
 30
0.0
 41
0.7201171409990421
 10
-0.0002336398893021
 20
1218.329222566406
 30
0.0
 41
1.0
  0
SPLINE
  5
DD
330
1F
100
AcDbEntity
  8
Miura_Table_9553-01_2D
100
AcDbSpline
210
0.0
220
0.0
230
1.0
 70
    12
 71
     2
 72
     6
 73
     3
 74
     0
 42
0.0000000001
 43
0.0000000001
 40
0.0
 40
0.0
 40
0.0
 40
1.533750190017919
 40
1.533750190017919
 40
1.533750190017919
 10
-0.0002336398893021
 20
1218.329222566406
 30
0.0
 41
1.0
 10
-0.0002738051080903
 20
1219.292812600972
 30
0.0
 41
0.7201170802944139
 10
-0.9632006233478024
 20
1219.328557517276
 30
0.0
 41
1.0
  0
SPLINE
  5
DE
330
1F
100
AcDbEntity
  8
Miura_Table_9553-01_2D
100
AcDbSpline
210
0.0
220
0.0
230
1.0
 70
    12
 71
     2
 72
     6
 73
     3
 74
     0
 42
0.0000000001
 43
0.0000000001
 40
0.0
 40
0.0
 40
0.0
 40
0.530875325286944
 40
0.530875325286944
 40
0.530875325286944
 10
7.422187033020236
 20
1152.868746532872
 30
0.0
 41
1.0
 10
7.653510735858755
 20
1152.998928583474
 30
0.0
 41
0.9999907493369285
 10
7.885945774677566
 20
1153.127115846973
 30
0.0
 41
1.0
  0
SPLINE
  5
DF
330
1F
100
AcDbEntity
  8
Miura_Table_9553-01_2D
100
AcDbSpline
210
0.0
220
0.0
230
1.0
 70
     8
 71
     3
 72
    13
 73
     9
 74
     0
 42
0.0000000001
 43
0.0000000001
 40
0.0
 40
0.0
 40
0.0
 40
0.0
 40
0.9782337425002417
 40
1.92275499347662
 40
2.84322828839396
 40
3.829522249011025
 40
5.764634216489107
 40
7.777214577453912
 40
7.777214577453912
 40
7.777214577453912
 40
7.777214577453912
 10
-0.0002336398893021
 20
1150.852056864373
 30
0.0
 10
0.3258516495588992
 20
1150.852209720842
 30
0.0
 10
0.9667278198294297
 20
1150.874890299522
 30
0.0
 10
1.910079715509709
 20
1150.971384726633
 30
0.0
 10
2.847664981552953
 20
1151.129981674771
 30
0.0
 10
4.094450514406162
 20
1151.425729610336
 30
0.0
 10
5.652944715086959
 20
1151.961274216796
 30
0.0
 10
6.83745319314221
 20
1152.539921790343
 30
0.0
 10
7.422187033019326
 20
1152.868746532872
 30
0.0
  0
SPLINE
  5
E0
330
1F
100
AcDbEntity
  8
Miura_Table_9553-01_2D
100
AcDbSpline
210
0.0
220
0.0
230
1.0
 70
    12
 71
     2
 72
     6
 73
     3
 74
     0
 42
0.0000000001
 43
0.0000000001
 40
0.0
 40
0.0
 40
0.0
 40
0.5308753252867442
 40
0.5308753252867442
 40
0.5308753252867442
 10
-7.88641305445526
 20
1153.127115846973
 30
0.0
 41
1.0
 10
-7.653978015637228
 20
1152.998928583474
 30
0.0
 41
0.9999907493369194
 10
-7.422654312797931
 20
1152.868746532872
 30
0.0
 41
1.0
  0
SPLINE
  5
E1
330
1F
100
AcDbEntity
  8
Miura_Table_9553-01_2D
100
AcDbSpline
210
0.0
220
0.0
230
1.0
 70
     8
 71
     3
 72
    13
 73
     9
 74
     0
 42
0.0000000001
 43
0.0000000001
 40
0.0
 40
0.0
 40
0.0
 40
0.0
 40
1.019225064702818
 40
2.012580360965313
 40
3.947692328443181
 40
4.933986289060289
 40
5.854459583978036
 40
7.777214577454429
 40
7.777214577454429
 40
7.777214577454429
 40
7.777214577454429
 10
-7.422654312797931
 20
1152.868746532872
 30
0.0
 10
-7.126512981676567
 20
1152.702282565319
 30
0.0
 10
-6.532115268916641
 20
1152.390473811694
 30
0.0
 10
-5.33146080358074
 20
1151.850675478098
 30
0.0
 10
-4.094921697113022
 20
1151.425724298309
 30
0.0
 10
-2.848132880591947
 20
1151.129964630806
 30
0.0
 10
-1.588866682507613
 20
1150.917056413333
 30
0.0
 10
-0.6411361824648339
 20
1150.852592809607
 30
0.0
 10
-0.0002336398893021
 20
1150.852056864373
 30
0.0
  0
SPLINE
  5
E2
330
1F
100
AcDbEntity
  8
Miura_Table_9553-01_2D
100
AcDbSpline
210
0.0
220
0.0
230
1.0
 70
    12
 71
     2
 72
     6
 73
     3
 74
     0
 42
0.0000000001
 43
0.0000000001
 40
0.0
 40
0.0
 40
0.0
 40
0.0456162757198297
 40
0.0456162757198297
 40
0.0456162757198297
 10
-0.7755554164896239
 20
1154.804492784092
 30
0.0
 41
1.0
 10
-0.797784053924929
 20
1154.799366408758
 30
0.0
 41
0.9997392900035
 10
-0.820223554869699
 20
1154.795260212999
 30
0.0
 41
1.0
  0
POLYLINE
  5
E3
330
1F
100
AcDbEntity
  8
Miura_Table_9553-01_2D
100
AcDb2dPolyline
 66
     1
 10
0.0
 20
0.0
 30
0.0
  0
VERTEX
  5
E4
330
E3
100
AcDbEntity
  8
Miura_Table_9553-01_2D
100
AcDbVertex
100
AcDb2dVertex
 10
-0.0002336398893021
 20
1218.329222566406
 30
0.0
  0
VERTEX
  5
E5
330
E3
100
AcDbEntity
  8
Miura_Table_9553-01_2D
100
AcDbVertex
100
AcDb2dVertex
 10
-0.0006589847098439
 20
1155.77894340381
 30
0.0
  0
SEQEND
  5
E6
330
E3
100
AcDbEntity
  8
Miura_Table_9553-01_2D
  0
SPLINE
  5
E7
330
1F
100
AcDbEntity
  8
Miura_Table_9553-01_2D
100
AcDbSpline
210
0.0
220
0.0
230
1.0
 70
     8
 71
     3
 72
    13
 73
     9
 74
     0
 42
0.0000000001
 43
0.0000000001
 40
0.0
 40
0.0
 40
0.0
 40
0.0
 40
0.0842084935809858
 40
0.1523207872208179
 40
0.275918593398183
 40
0.3976132335562294
 40
0.4611173083935368
 40
0.5436834943217633
 40
0.5436834943217633
 40
0.5436834943217633
 40
0.5436834943217633
 10
273.7938085217393
 20
851.6242074401047
 30
0.0
 10
273.7658371725956
 20
851.6241755400411
 30
0.0
 10
273.7146737466219
 20
851.6208448157712
 30
0.0
 10
273.6260427793404
 20
851.5956697720493
 30
0.0
 10
273.543989562786
 20
851.5200952694076
 30
0.0
 10
273.5360478806651
 20
851.410125016271
 30
0.0
 10
273.5754833328238
 20
851.32898278886
 30
0.0
 10
273.6066340737843
 20
851.291371645062
 30
0.0
 10
273.6248862553757
 20
851.2707350527094
 30
0.0
  0
SPLINE
  5
E8
330
1F
100
AcDbEntity
  8
Miura_Table_9553-01_2D
100
AcDbSpline
210
0.0
220
0.0
230
1.0
 70
    24
 71
     2
 72
     6
 73
     3
 74
     0
 42
0.0000000001
 43
0.0000000001
 40
0.0
 40
0.0
 40
0.0
 40
0.5244136134753632
 40
0.5244136134753632
 40
0.5244136134753632
 10
273.6248862553757
 20
851.2707350527094
 30
0.0
 10
273.796657689717
 20
851.0723905788577
 30
0.0
 10
273.9684291240583
 20
850.8740461050061
 30
0.0
  0
SPLINE
  5
E9
330
1F
100
AcDbEntity
  8
Miura_Table_9553-01_2D
100
AcDbSpline
210
0.0
220
0.0
230
1.0
 70
     8
 71
     3
 72
    12
 73
     8
 74
     0
 42
0.0000000001
 43
0.0000000001
 40
0.0
 40
0.0
 40
0.0
 40
0.0
 40
0.215147148445352
 40
0.4344126759933203
 40
1.014845999299492
 40
1.738325432821743
 40
2.240259627195611
 40
2.240259627195611
 40
2.240259627195611
 40
2.240259627195611
 10
273.9684291240583
 20
850.8740461050061
 30
0.0
 10
274.0154799816464
 20
850.8194846368356
 30
0.0
 10
274.1112968254165
 20
850.7108558328162
 30
0.0
 10
274.3476289144228
 20
850.4686965581903
 30
0.0
 10
274.7196344721742
 20
850.1229463350755
 30
0.0
 10
275.1734360590071
 20
849.7274410581628
 30
0.0
 10
275.4916480405373
 20
849.4710395321209
 30
0.0
 10
275.6284504871392
 20
849.3741621280301
 30
0.0
  0
SPLINE
  5
EA
330
1F
100
AcDbEntity
  8
Miura_Table_9553-01_2D
100
AcDbSpline
210
0.0
220
0.0
230
1.0
 70
     8
 71
     3
 72
    11
 73
     7
 74
     0
 42
0.0000000001
 43
0.0000000001
 40
0.0
 40
0.0
 40
0.0
 40
0.0
 40
2.849025153143938
 40
5.681848556468799
 40
11.31563454753918
 40
22.64754464670963
 40
22.64754464670963
 40
22.64754464670963
 40
22.64754464670963
 10
275.6284504871392
 20
849.3741621280301
 30
0.0
 10
276.4007787260634
 20
848.8212550995722
 30
0.0
 10
277.9833987160127
 20
847.7779439520615
 30
0.0
 10
281.2851267154456
 20
845.9490895345723
 30
0.0
 10
287.4067682719478
 20
843.4299660069285
 30
0.0
 10
293.0607671419048
 20
842.5367172045177
 30
0.0
 10
296.838222988199
 20
842.537052451596
 30
0.0
  0
SPLINE
  5
EB
330
1F
100
AcDbEntity
  8
Miura_Table_9553-01_2D
100
AcDbSpline
210
0.0
220
0.0
230
1.0
 70
     8
 71
     5
 72
    12
 73
     6
 74
     0
 42
0.0000000001
 43
0.0000000001
 40
-1.0
 40
-1.0
 40
-1.0
 40
-1.0
 40
-1.0
 40
-1.0
 40
0.0
 40
0.0
 40
0.0
 40
0.0
 40
0.0
 40
0.0
 10
296.838222988199
 20
842.537052451596
 30
0.0
 10
296.9071544418293
 20
842.5370585692235
 30
0.0
 10
296.9760858807577
 20
842.5372303411119
 30
0.0
 10
297.0450180591406
 20
842.5375592856418
 30
0.0
 10
297.1139479621907
 20
842.5380505784422
 30
0.0
 10
297.1828762820096
 20
842.5387078941506
 30
0.0
  0
SPLINE
  5
EC
330
1F
100
AcDbEntity
  8
Miura_Table_9553-01_2D
100
AcDbSpline
210
0.0
220
0.0
230
1.0
 70
     8
 71
     3
 72
    12
 73
     8
 74
     0
 42
0.0000000001
 43
0.0000000001
 40
0.0
 40
0.0
 40
0.0
 40
0.0
 40
2.765242495116511
 40
5.467131183712466
 40
11.12386283924205
 40
16.6939552205985
 40
22.3034199774177
 40
22.3034199774177
 40
22.3034199774177
 40
22.3034199774177
 10
297.1828762820096
 20
842.5387078941506
 30
0.0
 10
298.1045880703432
 20
842.5474975416943
 30
0.0
 10
299.926171810318
 20
842.6353070393343
 30
0.0
 10
303.6085916876254
 20
843.0907984023086
 30
0.0
 10
308.1341204773789
 20
844.1900861032323
 30
0.0
 10
313.3334228305775
 20
846.3458898783368
 30
0.0
 10
316.5278201255305
 20
848.2859672958705
 30
0.0
 10
318.048383817486
 20
849.3742402113996
 30
0.0
  0
SPLINE
  5
ED
330
1F
100
AcDbEntity
  8
Miura_Table_9553-01_2D
100
AcDbSpline
210
0.0
220
0.0
230
1.0
 70
     8
 71
     3
 72
    16
 73
    12
 74
     0
 42
0.0000000001
 43
0.0000000001
 40
0.0
 40
0.0
 40
0.0
 40
0.0
 40
0.1450445684408275
 40
0.2674563255525638
 40
0.5165020686838146
 40
0.7647651081847263
 40
0.9971024939488223
 40
1.19489142016583
 40
1.37708050099132
 40
1.556352254818321
 40
1.789706299665248
 40
1.789706299665248
 40
1.789706299665248
 40
1.789706299665248
 10
318.048383817486
 20
849.3742402113996
 30
0.0
 10
318.0878291253239
 20
849.4023818509473
 30
0.0
 10
318.1599736605776
 20
849.4548408231418
 30
0.0
 10
318.2905749337369
 20
849.5672878928624
 30
0.0
 10
318.4289648933009
 20
849.7216412229242
 30
0.0
 10
318.5588251255067
 20
849.9284012777517
 30
0.0
 10
318.6409645695448
 20
850.1404496591112
 30
0.0
 10
318.6679491791165
 20
850.344534467001
 30
0.0
 10
318.6385803781159
 20
850.5308549877369
 30
0.0
 10
318.550053171366
 20
850.7104032565587
 30
0.0
 10
318.4603015686062
 20
850.8155255790448
 30
0.0
 10
318.4092687127823
 20
850.8742388524273
 30
0.0
  0
SPLINE
  5
EE
330
1F
100
AcDbEntity
  8
Miura_Table_9553-01_2D
100
AcDbSpline
210
0.0
220
0.0
230
1.0
 70
    24
 71
     2
 72
     6
 73
     3
 74
     0
 42
0.0000000001
 43
0.0000000001
 40
0.0
 40
0.0
 40
0.0
 40
0.5244495011189884
 40
0.5244495011189884
 40
0.5244495011189884
 10
318.4092687127823
 20
850.8742388524273
 30
0.0
 10
318.2375122597987
 20
851.0725668711998
 30
0.0
 10
318.0657558068151
 20
851.2708948899726
 30
0.0
  0
SPLINE
  5
EF
330
1F
100
AcDbEntity
  8
Miura_Table_9553-01_2D
100
AcDbSpline
210
0.0
220
0.0
230
1.0
 70
     8
 71
     3
 72
    12
 73
     8
 74
     0
 42
0.0000000001
 43
0.0000000001
 40
0.0
 40
0.0
 40
0.0
 40
0.0
 40
0.0890023797843848
 40
0.1797960093845599
 40
0.411193526615116
 40
0.6556287843923316
 40
0.8529811660911645
 40
0.8529811660911645
 40
0.8529811660911645
 40
0.8529811660911645
 10
318.0657558068151
 20
851.2708948899726
 30
0.0
 10
318.0464438448244
 20
851.2936226943169
 30
0.0
 10
318.0056501679719
 20
851.3377507555913
 30
0.0
 10
317.896973526058
 20
851.4220032707836
 30
0.0
 10
317.7304523455023
 20
851.5122604542055
 30
0.0
 10
317.5209456971488
 20
851.594060664264
 30
0.0
 10
317.3754267132181
 20
851.6219095181629
 30
0.0
 10
317.3095368298245
 20
851.6236933426087
 30
0.0
  0
SPLINE
  5
F0
330
1F
100
AcDbEntity
  8
Miura_Table_9553-01_2D
100
AcDbSpline
210
0.0
220
0.0
230
1.0
 70
     8
 71
     3
 72
    13
 73
     9
 74
     0
 42
0.0000000001
 43
0.0000000001
 40
0.0
 40
0.0
 40
0.0
 40
0.0
 40
0.0902185093720015
 40
0.1761896831588625
 40
0.3455633168783852
 40
0.4948657949572023
 40
0.5565632593727951
 40
0.6273566248615841
 40
0.6273566248615841
 40
0.6273566248615841
 40
0.6273566248615841
 10
24.5586198652054
 20
851.6235822611809
 30
0.0
 10
24.58869755478918
 20
851.6225255175191
 30
0.0
 10
24.64726442189749
 20
851.6173620081737
 30
0.0
 10
24.75937285350211
 20
851.5884441682823
 30
0.0
 10
24.87952534518809
 20
851.5242132106108
 30
0.0
 10
24.96718820660499
 20
851.4287305675102
 30
0.0
 10
24.99903948209248
 20
851.3388007274333
 30
0.0
 10
24.9997962064117
 20
851.2943104400607
 30
0.0
 10
24.99978512793859
 20
851.2707486018738
 30
0.0
  0
SPLINE
  5
F1
330
1F
100
AcDbEntity
  8
Miura_Table_9553-01_2D
100
AcDbSpline
210
0.0
220
0.0
230
1.0
 70
    24
 71
     2
 72
     6
 73
     3
 74
     0
 42
0.0000000001
 43
0.0000000001
 40
0.0
 40
0.0
 40
0.0
 40
0.3964465280207605
 40
0.3964465280207605
 40
0.3964465280207605
 10
24.99978512793859
 20
851.2707486018738
 30
0.0
 10
24.99977174483956
 20
851.0725253379522
 30
0.0
 10
24.99975836174054
 20
850.8743020740304
 30
0.0
  0
SPLINE
  5
F2
330
1F
100
AcDbEntity
  8
Miura_Table_9553-01_2D
100
AcDbSpline
210
0.0
220
0.0
230
1.0
 70
     8
 71
     3
 72
    17
 73
    13
 74
     0
 42
0.0000000001
 43
0.0000000001
 40
0.0
 40
0.0
 40
0.0
 40
0.0
 40
0.096206427153708
 40
0.1738289297860724
 40
0.3373064891875309
 40
0.5367070411388807
 40
0.7755987407383814
 40
1.076140845210541
 40
1.396849041230189
 40
1.692620935227463
 40
1.82340452322402
 40
1.966221085738925
 40
1.966221085738925
 40
1.966221085738925
 40
1.966221085738925
 10
24.99975836174054
 20
850.8743020740304
 30
0.0
 10
24.99984204766861
 20
850.8422194488817
 30
0.0
 10
24.99940253490604
 20
850.7842837635118
 30
0.0
 10
24.9867012607383
 20
850.6722769928362
 30
0.0
 10
24.94368543623568
 20
850.5310202887978
 30
0.0
 10
24.84980675077804
 20
850.3530349555658
 30
0.0
 10
24.70754799290989
 20
850.1516120805582
 30
0.0
 10
24.51971060121105
 20
849.934581354957
 30
0.0
 10
24.30168894016151
 20
849.7200538104271
 30
0.0
 10
24.1110139083421
 20
849.559412898345
 30
0.0
 10
23.9569900480501
 20
849.4483676307327
 30
0.0
 10
23.87997398210337
 20
849.3994675975308
 30
0.0
 10
23.83952332166155
 20
849.374272506145
 30
0.0
  0
SPLINE
  5
F3
330
1F
100
AcDbEntity
  8
Miura_Table_9553-01_2D
100
AcDbSpline
210
0.0
220
0.0
230
1.0
 70
    24
 71
     2
 72
     6
 73
     3
 74
     0
 42
0.0000000001
 43
0.0000000001
 40
0.0
 40
0.0
 40
0.0
 40
0.0002289742124082
 40
0.0002289742124082
 40
0.0002289742124082
 10
23.83952332166155
 20
849.374272506145
 30
0.0
 10
23.83916266274809
 20
849.3740463245474
 30
0.0
 10
23.83880200383464
 20
849.3738201429501
 30
0.0
  0
SPLINE
  5
F4
330
1F
100
AcDbEntity
  8
Miura_Table_9553-01_2D
100
AcDbSpline
210
0.0
220
0.0
230
1.0
 70
     8
 71
     3
 72
    25
 73
    21
 74
     0
 42
0.0000000001
 43
0.0000000001
 40
0.0
 40
0.0
 40
0.0
 40
0.0
 40
3.199464847565258
 40
6.339105644558495
 40
12.50811986083845
 40
18.76914410145589
 40
21.92709824290087
 40
23.5426726790446
 40
24.35047809908063
 40
24.73600031715062
 40
24.93791509714551
 40
25.02970318784148
 40
25.08478241549296
 40
25.10542804074602
 40
25.11450266261522
 40
25.12044633183926
 40
25.1237624889977
 40
25.12411320300106
 40
25.12426471033862
 40
25.12576885809665
 40
25.12576885809665
 40
25.12576885809665
 40
25.12576885809665
 10
23.83880200383464
 20
849.3738201429501
 30
0.0
 10
22.9338566613269
 20
848.8084217005813
 30
0.0
 10
21.10193567988244
 20
847.7527545397757
 30
0.0
 10
17.35037372792248
 20
845.9278225943341
 30
0.0
 10
12.46212067491979
 20
844.1483339348407
 30
0.0
 10
7.368845372711803
 20
843.0584851014081
 30
0.0
 10
3.709096465766378
 20
842.6689949796573
 30
0.0
 10
1.851046946638235
 20
842.5696265052833
 30
0.0
 10
0.9150299697375883
 20
842.5450698092515
 30
0.0
 10
0.4499950875779177
 20
842.5389755909074
 30
0.0
 10
0.2235905292327516
 20
842.5375354097058
 30
0.0
 10
0.1073329553801159
 20
842.5371583003995
 30
0.0
 10
0.0514953320089262
 20
842.5370780235311
 30
0.0
 10
0.0232294057350373
 20
842.5370572709873
 30
0.0
 10
0.0113414660763738
 20
842.5370538609209
 30
0.0
 10
0.0052714270168508
 20
842.5370526041048
 30
0.0
 10
0.0018936212964036
 20
842.5370525447629
 30
0.0
 10
0.0012665961476159
 20
842.5370523847178
 30
0.0
 10
0.0012560593995659
 20
842.5370524693146
 30
0.0
 10
0.0004929614906359
 20
842.5370524499385
 30
0.0
 10
0.0000046250142987
 20
842.5370524524081
 30
0.0
  0
SPLINE
  5
F5
330
1F
100
AcDbEntity
  8
Miura_Table_9553-01_2D
100
AcDbSpline
210
0.0
220
0.0
230
1.0
 70
     8
 71
     3
 72
    24
 73
    20
 74
     0
 42
0.0000000001
 43
0.0000000001
 40
0.0
 40
0.0
 40
0.0
 40
0.0
 40
0.0020036009973828
 40
0.0022547111946161
 40
0.0025058213907338
 40
0.0056257993892326
 40
0.0112405324588038
 40
0.0196887687594485
 40
0.0391810618505631
 40
0.0782064054519545
 40
0.1883614775428985
 40
0.3719392572588333
 40
0.7758219388728827
 40
1.546888493387027
 40
3.125770128814666
 40
6.302017912357492
 40
12.52633999402473
 40
18.76876323823666
 40
25.12637023077661
 40
25.12637023077661
 40
25.12637023077661
 40
25.12637023077661
 10
0.0000046250142987
 20
842.5370524524081
 30
0.0
 10
-0.0006653399259449
 20
842.5370524499962
 30
0.0
 10
-0.001615417204448
 20
842.5370524778374
 30
0.0
 10
-0.0017879778088172
 20
842.5370523872148
 30
0.0
 10
-0.0019853803041769
 20
842.5370525112585
 30
0.0
 10
-0.0058387107574163
 20
842.5370526768265
 30
0.0
 10
-0.010969250591188
 20
842.5370535139284
 30
0.0
 10
-0.0226159078420096
 20
842.5370572400003
 30
0.0
 10
-0.0443878888372637
 20
842.5370711810323
 30
0.0
 10
-0.1011126245002743
 20
842.5371436543557
 30
0.0
 10
-0.2117302066881166
 20
842.5374713660307
 30
0.0
 10
-0.4444194353536659
 20
842.5389227058252
 30
0.0
 10
-0.8971415973201146
 20
842.5447228617993
 30
0.0
 10
-1.814847101300073
 20
842.5685146948103
 30
0.0
 10
-3.654637109546456
 20
842.6645258728672
 30
0.0
 10
-7.29667526598132
 20
843.0470493445639
 30
0.0
 10
-12.40960308202102
 20
844.1321517323162
 30
0.0
 10
-18.32259005250489
 20
846.2767125830872
 30
0.0
 10
-22.04155975367939
 20
848.2508912209263
 30
0.0
 10
-23.83946313975866
 20
849.3739428999969
 30
0.0
  0
SPLINE
  5
F6
330
1F
100
AcDbEntity
  8
Miura_Table_9553-01_2D
100
AcDbSpline
210
0.0
220
0.0
230
1.0
 70
     8
 71
     3
 72
    17
 73
    13
 74
     0
 42
0.0000000001
 43
0.0000000001
 40
0.0
 40
0.0
 40
0.0
 40
0.0
 40
0.1433371388019954
 40
0.2741217048581911
 40
0.5698915548391688
 40
0.8911637673394633
 40
1.191151497005835
 40
1.428512647803871
 40
1.628463248151063
 40
1.792814010234679
 40
1.870845827559429
 40
1.966221106772801
 40
1.966221106772801
 40
1.966221106772801
 40
1.966221106772801
 10
-23.83946313975866
 20
849.3739428999969
 30
0.0
 10
-23.88058957075918
 20
849.3995575351823
 30
0.0
 10
-23.95774665105364
 20
849.448560869636
 30
0.0
 10
-24.11189034870949
 20
849.5597350595641
 30
0.0
 10
-24.30268267139945
 20
849.7205286593263
 30
0.0
 10
-24.52066758499313
 20
849.9350969405917
 30
0.0
 10
-24.70812472098987
 20
850.1517888760304
 30
0.0
 10
-24.85008434253177
 20
850.3527868167113
 30
0.0
 10
-24.94404909424156
 20
850.5306905041136
 30
0.0
 10
-24.98728481789567
 20
850.6725229113788
 30
0.0
 10
-24.9998679405071
 20
850.7847080260969
 30
0.0
 10
-25.00032663232469
 20
850.8424852050964
 30
0.0
 10
-25.00022564151914
 20
850.8743020740304
 30
0.0
  0
SPLINE
  5
F7
330
1F
100
AcDbEntity
  8
Miura_Table_9553-01_2D
100
AcDbSpline
210
0.0
220
0.0
230
1.0
 70
    24
 71
     2
 72
     6
 73
     3
 74
     0
 42
0.0000000001
 43
0.0000000001
 40
0.0
 40
0.0
 40
0.0
 40
0.3964465280207605
 40
0.3964465280207605
 40
0.3964465280207605
 10
-25.00022564151914
 20
850.8743020740304
 30
0.0
 10
-25.00023902461817
 20
851.0725253379522
 30
0.0
 10
-25.0002524077172
 20
851.2707486018738
 30
0.0
  0
SPLINE
  5
F8
330
1F
100
AcDbEntity
  8
Miura_Table_9553-01_2D
100
AcDbSpline
210
0.0
220
0.0
230
1.0
 70
     8
 71
     3
 72
    12
 73
     8
 74
     0
 42
0.0000000001
 43
0.0000000001
 40
0.0
 40
0.0
 40
0.0
 40
0.0
 40
0.0709674213477591
 40
0.1335862693837825
 40
0.2813937667596485
 40
0.4525062216997118
 40
0.627356896276153
 40
0.627356896276153
 40
0.627356896276153
 40
0.627356896276153
 10
-25.0002524077172
 20
851.2707486018738
 30
0.0
 10
-25.00036174380875
 20
851.2943673968008
 30
0.0
 10
-24.9993784756216
 20
851.3392232268312
 30
0.0
 10
-24.96746930122936
 20
851.4290030969942
 30
0.0
 10
-24.87951467883977
 20
851.5244552403391
 30
0.0
 10
-24.73265152995009
 20
851.6031634713908
 30
0.0
 10
-24.61725990783816
 20
851.6220956952384
 30
0.0
 10
-24.55908688819454
 20
851.623576314585
 30
0.0
  0
SPLINE
  5
F9
330
1F
100
AcDbEntity
  8
Miura_Table_9553-01_2D
100
AcDbSpline
210
0.0
220
0.0
230
1.0
 70
    24
 71
     2
 72
     6
 73
     3
 74
     0
 42
0.0000000001
 43
0.0000000001
 40
0.0
 40
0.0
 40
0.0
 40
286.5590223823231
 40
286.5590223823231
 40
286.5590223823231
 10
25.12976751986389
 20
1138.183324452198
 30
0.0
 10
25.12976751986389
 20
994.9038132610363
 30
0.0
 10
25.12976751986389
 20
851.6243020698746
 30
0.0
  0
LINE
  5
FA
330
1F
100
AcDbEntity
  8
Miura_Table_9553-01_2D
100
AcDbLine
 10
25.12976751986389
 20
851.6243020698746
 30
0.0
 11
-25.13023479964249
 21
851.6243020698746
 31
0.0
  0
SPLINE
  5
FB
330
1F
100
AcDbEntity
  8
Miura_Table_9553-01_2D
100
AcDbSpline
210
0.0
220
0.0
230
1.0
 70
    24
 71
     2
 72
     6
 73
     3
 74
     0
 42
0.0000000001
 43
0.0000000001
 40
0.0
 40
0.0
 40
0.0
 40
286.5590223823228
 40
286.5590223823228
 40
286.5590223823228
 10
-25.13023479964249
 20
851.6243020698746
 30
0.0
 10
-25.13023479964249
 20
994.9038132610363
 30
0.0
 10
-25.13023479964249
 20
1138.183324452198
 30
0.0
  0
SPLINE
  5
FC
330
1F
100
AcDbEntity
  8
Miura_Table_9553-01_2D
100
AcDbSpline
210
0.0
220
0.0
230
1.0
 70
    12
 71
     2
 72
     6
 73
     3
 74
     0
 42
0.0000000001
 43
0.0000000001
 40
-11.69797561871451
 40
-11.69797561871451
 40
-11.69797561871451
 40
0.0
 40
0.0
 40
0.0
 10
-0.000446312299573
 20
1219.329221075086
 30
0.0
 41
1.0
 10
5.848435160852204
 20
1219.329221048183
 30
0.0
 41
1.0
 10
11.69731663400489
 20
1219.329221081191
 30
0.0
 41
1.0
  0
SPLINE
  5
FD
330
1F
100
AcDbEntity
  8
Miura_Table_9553-01_2D
100
AcDbSpline
210
0.0
220
0.0
230
1.0
 70
    12
 71
     3
 72
    10
 73
     6
 74
     0
 42
0.0000000001
 43
0.0000000001
 40
0.0049548029583888
 40
0.0049548029583888
 40
0.0049548029583888
 40
0.0049548029583888
 40
0.7080503722075561
 40
0.7080503722075561
 40
1.41140165102152
 40
1.41140165102152
 40
1.41140165102152
 40
1.41140165102152
 10
11.69731663400489
 20
1219.329221081191
 30
0.0
 41
1.0
 10
11.90674964444133
 20
1219.329215713201
 30
0.0
 41
1.0
 10
12.1071515336389
 20
1219.412939171075
 30
0.0
 41
1.0
 10
12.4225389186513
 20
1219.719484459902
 30
0.0
 41
1.0
 10
12.52649096981349
 20
1219.931469076522
 30
0.0
 41
1.0
 10
12.56008485551047
 20
1220.165330814492
 30
0.0
 41
1.0
  0
SPLINE
  5
FE
330
1F
100
AcDbEntity
  8
Miura_Table_9553-01_2D
100
AcDbSpline
210
0.0
220
0.0
230
1.0
 70
     8
 71
     3
 72
    18
 73
    14
 74
     0
 42
0.0000000001
 43
0.0000000001
 40
0.0
 40
0.0
 40
0.0
 40
0.0
 40
1.285072805565842
 40
2.530514856758515
 40
3.713958932632885
 40
4.870777299577193
 40
5.506991273313296
 40
5.827549416049516
 40
6.129926738348678
 40
6.413782533532998
 40
6.716881895257425
 40
7.387935346890758
 40
11.35744832993483
 40
11.35744832993483
 40
11.35744832993483
 40
11.35744832993483
 10
12.56008485551047
 20
1220.165330814492
 30
0.0
 10
12.6208658949954
 20
1220.589307632965
 30
0.0
 10
12.83274856430762
 20
1221.411371652381
 30
0.0
 10
13.40842394272204
 20
1222.516701147129
 30
0.0
 10
14.20188888410667
 20
1223.423022363815
 30
0.0
 10
15.0375117521653
 20
1223.976496257064
 30
0.0
 10
15.70387069121716
 20
1224.215344058427
 30
0.0
 10
16.11555885244434
 20
1224.298836242054
 30
0.0
 10
16.4167278283976
 20
1224.329969123182
 30
0.0
 10
16.71332646131941
 20
1224.329636187102
 30
0.0
 10
17.13261781506935
 20
1224.32906673342
 30
0.0
 10
18.78053282473137
 20
1224.329415199694
 30
0.0
 10
20.32736389796719
 20
1224.329110183663
 30
0.0
 10
21.65054403461909
 20
1224.329221175301
 30
0.0
  0
LINE
  5
FF
330
1F
100
AcDbEntity
  8
Miura_Table_9553-01_2D
100
AcDbLine
 10
21.65054403461909
 20
1224.329221175301
 30
0.0
 11
23.85228509145691
 21
1224.329313519295
 31
0.0
  0
SPLINE
  5
100
330
1F
100
AcDbEntity
  8
Miura_Table_9553-01_2D
100
AcDbSpline
210
0.0
220
0.0
230
1.0
 70
     8
 71
     3
 72
    15
 73
    11
 74
     0
 42
0.0000000001
 43
0.0000000001
 40
-3.919177605417825
 40
-3.919177605417825
 40
-3.919177605417825
 40
-3.919177605417825
 40
-3.588551735127003
 40
-3.247808135525446
 40
-2.899529664530076
 40
-2.520270126564128
 40
-2.107271700881923
 40
-1.592389293923228
 40
-0.9361505302432512
 40
0.0
 40
0.0
 40
0.0
 40
0.0
 10
23.85228509145691
 20
1224.329313519295
 30
0.0
 10
23.96016476237583
 20
1224.306737988758
 30
0.0
 10
24.17279794237129
 20
1224.230188730419
 30
0.0
 10
24.45128468249277
 20
1224.029761757646
 30
0.0
 10
24.67719806800778
 20
1223.750763679175
 30
0.0
 10
24.84101312007351
 20
1223.405301659137
 30
0.0
 10
24.95506379136805
 20
1222.983695987362
 30
0.0
 10
25.03357543940274
 20
1222.461014890957
 30
0.0
 10
25.08981799575213
 20
1221.760646780304
 30
0.0
 10
25.11199497446432
 20
1221.23026197386
 30
0.0
 10
25.12385113991877
 20
1220.91844267935
 30
0.0
  0
SPLINE
  5
101
330
1F
100
AcDbEntity
  8
Miura_Table_9553-01_2D
100
AcDbSpline
210
0.0
220
0.0
230
1.0
 70
     8
 71
     5
 72
    12
 73
     6
 74
     0
 42
0.0000000001
 43
0.0000000001
 40
0.0
 40
0.0
 40
0.0
 40
0.0
 40
0.0
 40
0.0
 40
1.0
 40
1.0
 40
1.0
 40
1.0
 40
1.0
 40
1.0
 10
25.12385113991877
 20
1220.91844267935
 30
0.0
 10
25.12957532702785
 20
1220.767895523716
 30
0.0
 10
25.13507026472143
 20
1220.617339651433
 30
0.0
 10
25.13966514094227
 20
1220.466751664127
 30
0.0
 10
25.14469273672421
 20
1220.316179410137
 30
0.0
 10
25.14998094611292
 20
1220.165616309647
 30
0.0
  0
SPLINE
  5
102
330
1F
100
AcDbEntity
  8
Miura_Table_9553-01_2D
100
AcDbSpline
210
0.0
220
0.0
230
1.0
 70
    12
 71
     2
 72
     6
 73
     3
 74
     0
 42
0.0000000001
 43
0.0000000001
 40
0.0
 40
0.0
 40
0.0
 40
0.3764503268402766
 40
0.3764503268402766
 40
0.3764503268402766
 10
25.14998094611292
 20
1220.165616309647
 30
0.0
 41
1.0
 10
25.1565878881734
 20
1219.977506950083
 30
0.0
 41
0.9999985034549736
 10
25.16384566851411
 20
1219.789421577277
 30
0.0
 41
1.0
  0
SPLINE
  5
103
330
1F
100
AcDbEntity
  8
Miura_Table_9553-01_2D
100
AcDbSpline
210
0.0
220
0.0
230
1.0
 70
    12
 71
     2
 72
     6
 73
     3
 74
     0
 42
0.0000000001
 43
0.0000000001
 40
0.0
 40
0.0
 40
0.0
 40
0.8650636015552052
 40
0.8650636015552052
 40
0.8650636015552052
 10
25.16384566851411
 20
1219.789421577277
 30
0.0
 41
1.0
 10
25.18179395511876
 20
1219.357260864603
 30
0.0
 41
0.9999949169942276
 10
25.20249551705458
 20
1218.92522328764
 30
0.0
 41
0.99999999999989
  0
SPLINE
  5
104
330
1F
100
AcDbEntity
  8
Miura_Table_9553-01_2D
100
AcDbSpline
210
0.0
220
0.0
230
1.0
 70
    12
 71
     2
 72
     6
 73
     3
 74
     0
 42
0.0000000001
 43
0.0000000001
 40
-0.0174069048050353
 40
-0.0174069048050353
 40
-0.0174069048050353
 40
0.0
 40
0.0
 40
0.0
 10
25.20249551705456
 20
1218.92522328764
 30
0.0
 41
1.0
 10
25.20287051997062
 20
1218.916527916859
 30
0.0
 41
0.9999999593102531
 10
25.20324528923902
 20
1218.907832536186
 30
0.0
 41
1.0
  0
SPLINE
  5
105
330
1F
100
AcDbEntity
  8
Miura_Table_9553-01_2D
100
AcDbSpline
210
0.0
220
0.0
230
1.0
 70
    12
 71
     2
 72
     6
 73
     3
 74
     0
 42
0.0000000001
 43
0.0000000001
 40
0.0
 40
0.0
 40
0.0
 40
0.0038962172915295
 40
0.0038962172915295
 40
0.0038962172915295
 10
25.20324528923902
 20
1218.907832536186
 30
0.0
 41
1.0
 10
25.20333117953044
 20
1218.905886320006
 30
0.0
 41
0.99999999708734
 10
25.20339382625389
 20
1218.903939104046
 30
0.0
 41
1.0
  0
SPLINE
  5
106
330
1F
100
AcDbEntity
  8
Miura_Table_9553-01_2D
100
AcDbSpline
210
0.0
220
0.0
230
1.0
 70
     8
 71
     3
 72
    15
 73
    11
 74
     0
 42
0.0000000001
 43
0.0000000001
 40
-44.15779849543482
 40
-44.15779849543482
 40
-44.15779849543482
 40
-44.15779849543482
 40
-41.3966023543671
 40
-38.64978450157578
 40
-32.87822943471982
 40
-21.59382453005134
 40
-10.5998510122942
 40
-5.271537957085918
 40
-2.763377139235542
 40
0.0
 40
0.0
 40
0.0
 40
0.0
 10
25.20339382625389
 20
1218.903939104046
 30
0.0
 10
25.24351612789542
 20
1217.984453749153
 30
0.0
 10
25.35031039160822
 20
1216.151226444278
 30
0.0
 10
25.69925209294342
 20
1212.407142712135
 30
0.0
 10
26.61382855080501
 20
1205.866763379845
 30
0.0
 10
28.75295864554573
 20
1196.746645401483
 30
0.0
 10
31.96661667216904
 20
1188.103348418402
 30
0.0
 10
34.73563730585556
 20
1182.465746816883
 30
0.0
 10
36.45775452929047
 20
1179.380114507577
 30
0.0
 10
37.37523079914718
 20
1177.880874145484
 30
0.0
 10
37.85992678042294
 20
1177.097747455559
 30
0.0
  0
SPLINE
  5
107
330
1F
100
AcDbEntity
  8
Miura_Table_9553-01_2D
100
AcDbSpline
210
0.0
220
0.0
230
1.0
 70
     8
 71
     5
 72
    12
 73
     6
 74
     0
 42
0.0000000001
 43
0.0000000001
 40
0.0
 40
0.0
 40
0.0
 40
0.0
 40
0.0
 40
0.0
 40
1.0
 40
1.0
 40
1.0
 40
1.0
 40
1.0
 40
1.0
 10
37.85992678042294
 20
1177.097747455559
 30
0.0
 10
37.86325956490873
 20
1177.092362652334
 30
0.0
 10
37.86659250529374
 20
1177.086977945599
 30
0.0
 10
37.86990224665351
 20
1177.081578900337
 30
0.0
 10
37.87323137606836
 20
1177.076191836615
 30
0.0
 10
37.87656061412326
 20
1177.070804840033
 30
0.0
  0
SPLINE
  5
108
330
1F
100
AcDbEntity
  8
Miura_Table_9553-01_2D
100
AcDbSpline
210
0.0
220
0.0
230
1.0
 70
     8
 71
     3
 72
    18
 73
    14
 74
     0
 42
0.0000000001
 43
0.0000000001
 40
-23.95196467547641
 40
-23.95196467547641
 40
-23.95196467547641
 40
-23.95196467547641
 40
-22.53576743944416
 40
-21.30318735092228
 40
-18.5887311986106
 40
-13.15870189535763
 40
-11.37665901709092
 40
-8.473068222320627
 40
-6.616257952753485
 40
-5.359452356478953
 40
-3.216127340650388
 40
-1.224399517688125
 40
0.0
 40
0.0
 40
0.0
 40
0.0
 10
37.87656061412326
 20
1177.070804840033
 30
0.0
 10
38.12473184786722
 20
1176.669242210448
 30
0.0
 10
38.59027014086769
 20
1175.918990461205
 30
0.0
 10
39.55678918258854
 20
1174.414978919024
 30
0.0
 10
41.30047437561552
 20
1171.820511780105
 30
0.0
 10
43.25583381278921
 20
1169.149773791661
 30
0.0
 10
45.34243821141807
 20
1166.500896165193
 30
0.0
 10
46.73327908135525
 20
1164.820868797519
 30
0.0
 10
48.03836225944724
 20
1163.29782345783
 30
0.0
 10
49.18878651829709
 20
1161.97599689471
 30
0.0
 10
50.36956357041254
 20
1160.621033736677
 30
0.0
 10
51.53775355549351
 20
1159.269390345701
 30
0.0
 10
52.23909265164002
 20
1158.458605171109
 30
0.0
 10
52.50599229428008
 20
1158.149832884432
 30
0.0
  0
SPLINE
  5
109
330
1F
100
AcDbEntity
  8
Miura_Table_9553-01_2D
100
AcDbSpline
210
0.0
220
0.0
230
1.0
 70
     8
 71
     5
 72
    12
 73
     6
 74
     0
 42
0.0000000001
 43
0.0000000001
 40
0.0
 40
0.0
 40
0.0
 40
0.0
 40
0.0
 40
0.0
 40
1.0
 40
1.0
 40
1.0
 40
1.0
 40
1.0
 40
1.0
 10
52.50599229428008
 20
1158.149832884432
 30
0.0
 10
52.51431276664515
 20
1158.140207051843
 30
0.0
 10
52.52263314996525
 20
1158.130581142284
 30
0.0
 10
52.53098079484789
 20
1158.120978819552
 30
0.0
 10
52.53931025791189
 20
1158.111360765774
 30
0.0
 10
52.54763972097589
 20
1158.101742711995
 30
0.0
  0
SPLINE
  5
10A
330
1F
100
AcDbEntity
  8
Miura_Table_9553-01_2D
100
AcDbSpline
210
0.0
220
0.0
230
1.0
 70
    24
 71
     2
 72
     6
 73
     3
 74
     0
 42
0.0000000001
 43
0.0000000001
 40
-405.4330160665158
 40
-405.4330160665158
 40
-405.4330160665158
 40
0.0
 40
0.0
 40
0.0
 10
52.54763972097589
 20
1158.101742711995
 30
0.0
 10
185.2564630631728
 20
1004.862501476719
 30
0.0
 10
317.9652864053696
 20
851.6232602414419
 30
0.0
  0
LINE
  5
10B
330
1F
100
AcDbEntity
  8
Miura_Table_9553-01_2D
100
AcDbLine
 10
317.9652864053696
 20
851.6232602414419
 30
0.0
 11
273.2971620349781
 21
851.6238448480439
 31
0.0
  0
SPLINE
  5
10C
330
1F
100
AcDbEntity
  8
Miura_Table_9553-01_2D
100
AcDbSpline
210
0.0
220
0.0
230
1.0
 70
    24
 71
     2
 72
     6
 73
     3
 74
     0
 42
0.0000000001
 43
0.0000000001
 40
-382.1184799122443
 40
-382.1184799122443
 40
-382.1184799122443
 40
0.0
 40
0.0
 40
0.0
 10
273.2971620349781
 20
851.6238448480439
 30
0.0
 10
148.2196155319875
 20
996.0509373366617
 30
0.0
 10
23.14206902899696
 20
1140.478029825279
 30
0.0
  0
SPLINE
  5
10D
330
1F
100
AcDbEntity
  8
Miura_Table_9553-01_2D
100
AcDbSpline
210
0.0
220
0.0
230
1.0
 70
     8
 71
     5
 72
    12
 73
     6
 74
     0
 42
0.0000000001
 43
0.0000000001
 40
-1.0
 40
-1.0
 40
-1.0
 40
-1.0
 40
-1.0
 40
-1.0
 40
0.0
 40
0.0
 40
0.0
 40
0.0
 40
0.0
 40
0.0
 10
23.14206902899696
 20
1140.478029825279
 30
0.0
 10
23.13920704977591
 20
1140.481334553819
 30
0.0
 10
23.13634507055486
 20
1140.484639282359
 30
0.0
 10
23.13336385594175
 20
1140.487839556289
 30
0.0
 10
23.1304772646572
 20
1140.491122808723
 30
0.0
 10
23.12759060195913
 20
1140.494405998369
 30
0.0
  0
SPLINE
  5
10E
330
1F
100
AcDbEntity
  8
Miura_Table_9553-01_2D
100
AcDbSpline
210
0.0
220
0.0
230
1.0
 70
     8
 71
     3
 72
    15
 73
    11
 74
     0
 42
0.0000000001
 43
0.0000000001
 40
-17.32695060162203
 40
-17.32695060162203
 40
-17.32695060162203
 40
-17.32695060162203
 40
-14.68355992114336
 40
-12.30992601284868
 40
-9.953021317401363
 40
-7.666287083349557
 40
-3.639233357410876
 40
-1.776264706140458
 40
-0.8793827298841641
 40
0.0
 40
0.0
 40
0.0
 40
0.0
 10
23.12759060195913
 20
1140.494405998369
 30
0.0
 10
22.5458141864774
 20
1141.156098237283
 30
0.0
 10
21.43478322839837
 20
1142.406423785015
 30
0.0
 10
19.73801849493157
 20
1144.185116223126
 30
0.0
 10
18.07353190829053
 20
1145.829187331714
 30
0.0
 10
15.94352325903036
 20
1147.783035163875
 30
0.0
 10
13.84380088366379
 20
1149.524471814143
 30
0.0
 10
11.98951000265879
 20
1150.823280990643
 30
0.0
 10
10.9693174359254
 20
1151.479119320921
 30
0.0
 10
10.46121091731493
 20
1151.78365596254
 30
0.0
 10
10.20786785141718
 20
1151.930945491057
 30
0.0
  0
SPLINE
  5
10F
330
1F
100
AcDbEntity
  8
Miura_Table_9553-01_2D
100
AcDbSpline
210
0.0
220
0.0
230
1.0
 70
    12
 71
     2
 72
     6
 73
     3
 74
     0
 42
0.0000000001
 43
0.0000000001
 40
0.0
 40
0.0
 40
0.0
 40
0.1469556320606097
 40
0.1469556320606097
 40
0.1469556320606097
 10
10.20786785141718
 20
1151.930945491057
 30
0.0
 41
1.0
 10
10.1443410609672
 20
1151.967869248636
 30
0.0
 41
0.9999969449633208
 10
10.08100008408474
 20
1152.005110785774
 30
0.0
 41
1.0
  0
SPLINE
  5
110
330
1F
100
AcDbEntity
  8
Miura_Table_9553-01_2D
100
AcDbSpline
210
0.0
220
0.0
230
1.0
 70
     8
 71
     5
 72
    12
 73
     6
 74
     0
 42
0.0000000001
 43
0.0000000001
 40
-1.0
 40
-1.0
 40
-1.0
 40
-1.0
 40
-1.0
 40
-1.0
 40
0.0
 40
0.0
 40
0.0
 40
0.0
 40
0.0
 40
0.0
 10
10.08100008408474
 20
1152.005110785774
 30
0.0
 10
10.07767480273105
 20
1152.007065895959
 30
0.0
 10
10.07434984276279
 20
1152.009021552761
 30
0.0
 10
10.07102348510944
 20
1152.010974833657
 30
0.0
 10
10.06769702639758
 20
1152.012927940196
 30
0.0
 10
10.06437011675825
 20
1152.014880278325
 30
0.0
  0
SPLINE
  5
111
330
1F
100
AcDbEntity
  8
Miura_Table_9553-01_2D
100
AcDbSpline
210
0.0
220
0.0
230
1.0
 70
    12
 71
     2
 72
     6
 73
     3
 74
     0
 42
0.0000000001
 43
0.0000000001
 40
0.0
 40
0.0
 40
0.0
 40
1.059455396730205
 40
1.059455396730205
 40
1.059455396730205
 10
10.06437011675825
 20
1152.014880278325
 30
0.0
 41
1.0
 10
9.607401742287194
 20
1152.283044093328
 30
0.0
 41
0.9996780901699672
 10
9.137418595529197
 20
1152.527682129428
 30
0.0
 41
1.0
  0
SPLINE
  5
112
330
1F
100
AcDbEntity
  8
Miura_Table_9553-01_2D
100
AcDbSpline
210
0.0
220
0.0
230
1.0
 70
     8
 71
     5
 72
    12
 73
     6
 74
     0
 42
0.0000000001
 43
0.0000000001
 40
0.0
 40
0.0
 40
0.0
 40
0.0
 40
0.0
 40
0.0
 40
1.0
 40
1.0
 40
1.0
 40
1.0
 40
1.0
 40
1.0
 10
9.137418595529197
 20
1152.527682129428
 30
0.0
 10
8.891178511095858
 20
1152.655856280098
 30
0.0
 10
8.642807964047278
 20
1152.779937520525
 30
0.0
 10
8.39226124896686
 20
1152.900211599412
 30
0.0
 10
8.139801914903728
 20
1153.015743867479
 30
0.0
 10
7.885520428686504
 20
1153.127115847119
 30
0.0
  0
SPLINE
  5
113
330
1F
100
AcDbEntity
  8
Miura_Table_9553-01_2D
100
AcDbSpline
210
0.0
220
0.0
230
1.0
 70
     8
 71
     3
 72
    11
 73
     7
 74
     0
 42
0.0000000001
 43
0.0000000001
 40
0.0
 40
0.0
 40
0.0
 40
0.0
 40
0.9078897846316703
 40
1.83413863357669
 40
3.620644636221537
 40
7.168114128633167
 40
7.168114128633167
 40
7.168114128633167
 40
7.168114128633167
 10
7.885520428686504
 20
1153.127115847119
 30
0.0
 10
7.608326906882213
 20
1153.248522999979
 30
0.0
 10
7.043014452887293
 20
1153.481838302329
 30
0.0
 10
5.907333369415937
 20
1153.891037758305
 30
0.0
 10
3.899407172666542
 20
1154.466879283195
 30
0.0
 10
2.132235986280647
 20
1154.721312262609
 30
0.0
 10
0.9511953247274503
 20
1154.780845812724
 30
0.0
  0
SPLINE
  5
114
330
1F
100
AcDbEntity
  8
Miura_Table_9553-01_2D
100
AcDbSpline
210
0.0
220
0.0
230
1.0
 70
    12
 71
     2
 72
     6
 73
     3
 74
     0
 42
0.0000000001
 43
0.0000000001
 40
-1.522042370303901
 40
-1.522042370303901
 40
-1.522042370303901
 40
0.0
 40
0.0
 40
0.0
 10
0.9511953247274503
 20
1154.780845812724
 30
0.0
 41
1.0
 10
-0.0003135772459526
 20
1154.826347166497
 30
0.0
 41
0.7239225688158023
 10
-0.0004463122996911
 20
1155.77894340381
 30
0.0
 41
0.9999999691280612
  0
SPLINE
  5
115
330
1F
100
AcDbEntity
  8
Miura_Table_9553-01_2D
100
AcDbSpline
210
0.0
220
0.0
230
1.0
 70
    12
 71
     2
 72
     6
 73
     3
 74
     0
 42
0.0000000001
 43
0.0000000001
 40
0.0
 40
0.0
 40
0.0
 40
1.522042370303901
 40
1.522042370303901
 40
1.522042370303901
 10
-0.0004463122996911
 20
1155.77894340381
 30
0.0
 41
0.9999999691280612
 10
-0.0005790473526933
 20
1154.826347166497
 30
0.0
 41
0.7239225688158023
 10
-0.9520879493265965
 20
1154.780845812724
 30
0.0
 41
1.0
  0
SPLINE
  5
116
330
1F
100
AcDbEntity
  8
Miura_Table_9553-01_2D
100
AcDbSpline
210
0.0
220
0.0
230
1.0
 70
     8
 71
     3
 72
    11
 73
     7
 74
     0
 42
0.0000000001
 43
0.0000000001
 40
-7.168114128633167
 40
-7.168114128633167
 40
-7.168114128633167
 40
-7.168114128633167
 40
-3.620644636221537
 40
-1.83413863357669
 40
-0.9078897846316703
 40
0.0
 40
0.0
 40
0.0
 40
0.0
 10
-0.9520879493265965
 20
1154.780845812724
 30
0.0
 10
-2.133128610879793
 20
1154.721312262609
 30
0.0
 10
-3.900299797265688
 20
1154.466879283195
 30
0.0
 10
-5.908225994015082
 20
1153.891037758305
 30
0.0
 10
-7.043907077486437
 20
1153.481838302329
 30
0.0
 10
-7.609219531481357
 20
1153.248522999979
 30
0.0
 10
-7.886413053285651
 20
1153.127115847119
 30
0.0
  0
SPLINE
  5
117
330
1F
100
AcDbEntity
  8
Miura_Table_9553-01_2D
100
AcDbSpline
210
0.0
220
0.0
230
1.0
 70
     8
 71
     5
 72
    12
 73
     6
 74
     0
 42
0.0000000001
 43
0.0000000001
 40
-1.0
 40
-1.0
 40
-1.0
 40
-1.0
 40
-1.0
 40
-1.0
 40
0.0
 40
0.0
 40
0.0
 40
0.0
 40
0.0
 40
0.0
 10
-7.886413053285651
 20
1153.127115847119
 30
0.0
 10
-8.140694539502874
 20
1153.015743867479
 30
0.0
 10
-8.393153873566006
 20
1152.900211599412
 30
0.0
 10
-8.643700588646424
 20
1152.779937520525
 30
0.0
 10
-8.892071135695005
 20
1152.655856280098
 30
0.0
 10
-9.138311220128343
 20
1152.527682129428
 30
0.0
  0
SPLINE
  5
118
330
1F
100
AcDbEntity
  8
Miura_Table_9553-01_2D
100
AcDbSpline
210
0.0
220
0.0
230
1.0
 70
    12
 71
     2
 72
     6
 73
     3
 74
     0
 42
0.0000000001
 43
0.0000000001
 40
-1.059455396730205
 40
-1.059455396730205
 40
-1.059455396730205
 40
0.0
 40
0.0
 40
0.0
 10
-9.138311220128343
 20
1152.527682129428
 30
0.0
 41
1.0
 10
-9.60829436688672
 20
1152.283044093328
 30
0.0
 41
0.9996780901699672
 10
-10.0652627413574
 20
1152.014880278325
 30
0.0
 41
1.0
  0
SPLINE
  5
119
330
1F
100
AcDbEntity
  8
Miura_Table_9553-01_2D
100
AcDbSpline
210
0.0
220
0.0
230
1.0
 70
     8
 71
     5
 72
    12
 73
     6
 74
     0
 42
0.0000000001
 43
0.0000000001
 40
0.0
 40
0.0
 40
0.0
 40
0.0
 40
0.0
 40
0.0
 40
1.0
 40
1.0
 40
1.0
 40
1.0
 40
1.0
 40
1.0
 10
-10.0652627413574
 20
1152.014880278325
 30
0.0
 10
-10.06858965099673
 20
1152.012927940196
 30
0.0
 10
-10.07191610970858
 20
1152.010974833657
 30
0.0
 10
-10.07524246736193
 20
1152.009021552761
 30
0.0
 10
-10.0785674273302
 20
1152.007065895959
 30
0.0
 10
-10.08189270868388
 20
1152.005110785774
 30
0.0
  0
SPLINE
  5
11A
330
1F
100
AcDbEntity
  8
Miura_Table_9553-01_2D
100
AcDbSpline
210
0.0
220
0.0
230
1.0
 70
    12
 71
     2
 72
     6
 73
     3
 74
     0
 42
0.0000000001
 43
0.0000000001
 40
-0.1469556320606097
 40
-0.1469556320606097
 40
-0.1469556320606097
 40
0.0
 40
0.0
 40
0.0
 10
-10.08189270868388
 20
1152.005110785774
 30
0.0
 41
1.0
 10
-10.14523368556607
 20
1151.967869248636
 30
0.0
 41
0.9999969449633208
 10
-10.20876047601632
 20
1151.930945491057
 30
0.0
 41
1.0
  0
SPLINE
  5
11B
330
1F
100
AcDbEntity
  8
Miura_Table_9553-01_2D
100
AcDbSpline
210
0.0
220
0.0
230
1.0
 70
     8
 71
     3
 72
    15
 73
    11
 74
     0
 42
0.0000000001
 43
0.0000000001
 40
0.0
 40
0.0
 40
0.0
 40
0.0
 40
0.8793827298841641
 40
1.776264706140458
 40
3.639233357410876
 40
7.666287083349557
 40
9.953021317401363
 40
12.30992601284868
 40
14.68355992114336
 40
17.32695060162203
 40
17.32695060162203
 40
17.32695060162203
 40
17.32695060162203
 10
-10.20876047601632
 20
1151.930945491057
 30
0.0
 10
-10.46210354191408
 20
1151.78365596254
 30
0.0
 10
-10.97021006052455
 20
1151.479119320921
 30
0.0
 10
-11.99040262725794
 20
1150.823280990643
 30
0.0
 10
-13.84469350826294
 20
1149.524471814143
 30
0.0
 10
-15.94441588362952
 20
1147.783035163875
 30
0.0
 10
-18.07442453288968
 20
1145.829187331714
 30
0.0
 10
-19.73891111953071
 20
1144.185116223126
 30
0.0
 10
-21.43567585299752
 20
1142.406423785015
 30
0.0
 10
-22.54670681107655
 20
1141.156098237283
 30
0.0
 10
-23.12848322655827
 20
1140.494405998369
 30
0.0
  0
SPLINE
  5
11C
330
1F
100
AcDbEntity
  8
Miura_Table_9553-01_2D
100
AcDbSpline
210
0.0
220
0.0
230
1.0
 70
     8
 71
     5
 72
    12
 73
     6
 74
     0
 42
0.0000000001
 43
0.0000000001
 40
0.0
 40
0.0
 40
0.0
 40
0.0
 40
0.0
 40
0.0
 40
1.0
 40
1.0
 40
1.0
 40
1.0
 40
1.0
 40
1.0
 10
-23.12848322655827
 20
1140.494405998369
 30
0.0
 10
-23.13136988925636
 20
1140.491122808723
 30
0.0
 10
-23.1342564805409
 20
1140.487839556289
 30
0.0
 10
-23.137237695154
 20
1140.484639282359
 30
0.0
 10
-23.14009967437505
 20
1140.481334553819
 30
0.0
 10
-23.1429616535961
 20
1140.478029825279
 30
0.0
  0
SPLINE
  5
11D
330
1F
100
AcDbEntity
  8
Miura_Table_9553-01_2D
100
AcDbSpline
210
0.0
220
0.0
230
1.0
 70
    24
 71
     2
 72
     6
 73
     3
 74
     0
 42
0.0000000001
 43
0.0000000001
 40
0.0
 40
0.0
 40
0.0
 40
382.1184799122443
 40
382.1184799122443
 40
382.1184799122443
 10
-23.1429616535961
 20
1140.478029825279
 30
0.0
 10
-148.2205081565866
 20
996.0509373366617
 30
0.0
 10
-273.2980546595772
 20
851.6238448480439
 30
0.0
  0
LINE
  5
11E
330
1F
100
AcDbEntity
  8
Miura_Table_9553-01_2D
100
AcDbLine
 10
-273.2980546595772
 20
851.6238448480439
 30
0.0
 11
-317.9661790299688
 21
851.6232602414419
 31
0.0
  0
SPLINE
  5
11F
330
1F
100
AcDbEntity
  8
Miura_Table_9553-01_2D
100
AcDbSpline
210
0.0
220
0.0
230
1.0
 70
    24
 71
     2
 72
     6
 73
     3
 74
     0
 42
0.0000000001
 43
0.0000000001
 40
0.0
 40
0.0
 40
0.0
 40
405.4330160665158
 40
405.4330160665158
 40
405.4330160665158
 10
-317.9661790299688
 20
851.6232602414419
 30
0.0
 10
-185.2573556877719
 20
1004.862501476719
 30
0.0
 10
-52.54853234557504
 20
1158.101742711995
 30
0.0
  0
SPLINE
  5
120
330
1F
100
AcDbEntity
  8
Miura_Table_9553-01_2D
100
AcDbSpline
210
0.0
220
0.0
230
1.0
 70
     8
 71
     5
 72
    12
 73
     6
 74
     0
 42
0.0000000001
 43
0.0000000001
 40
-1.0
 40
-1.0
 40
-1.0
 40
-1.0
 40
-1.0
 40
-1.0
 40
0.0
 40
0.0
 40
0.0
 40
0.0
 40
0.0
 40
0.0
 10
-52.54853234557504
 20
1158.101742711995
 30
0.0
 10
-52.54020288251105
 20
1158.111360765774
 30
0.0
 10
-52.53187341944704
 20
1158.120978819552
 30
0.0
 10
-52.5235257745644
 20
1158.130581142284
 30
0.0
 10
-52.51520539124431
 20
1158.140207051843
 30
0.0
 10
-52.50688491887922
 20
1158.149832884432
 30
0.0
  0
SPLINE
  5
121
330
1F
100
AcDbEntity
  8
Miura_Table_9553-01_2D
100
AcDbSpline
210
0.0
220
0.0
230
1.0
 70
     8
 71
     3
 72
    18
 73
    14
 74
     0
 42
0.0000000001
 43
0.0000000001
 40
0.0
 40
0.0
 40
0.0
 40
0.0
 40
1.224399517688125
 40
3.216127340650388
 40
5.359452356478953
 40
6.616257952753485
 40
8.473068222320627
 40
11.37665901709092
 40
13.15870189535763
 40
18.5887311986106
 40
21.30318735092228
 40
22.53576743944416
 40
23.95196467547641
 40
23.95196467547641
 40
23.95196467547641
 40
23.95196467547641
 10
-52.50688491887922
 20
1158.149832884432
 30
0.0
 10
-52.23998527623917
 20
1158.458605171109
 30
0.0
 10
-51.53864618009266
 20
1159.269390345701
 30
0.0
 10
-50.37045619501168
 20
1160.621033736677
 30
0.0
 10
-49.18967914289623
 20
1161.97599689471
 30
0.0
 10
-48.03925488404639
 20
1163.29782345783
 30
0.0
 10
-46.7341717059544
 20
1164.820868797519
 30
0.0
 10
-45.34333083601723
 20
1166.500896165193
 30
0.0
 10
-43.25672643738835
 20
1169.149773791661
 30
0.0
 10
-41.30136700021467
 20
1171.820511780105
 30
0.0
 10
-39.55768180718769
 20
1174.414978919024
 30
0.0
 10
-38.59116276546683
 20
1175.918990461205
 30
0.0
 10
-38.12562447246637
 20
1176.669242210448
 30
0.0
 10
-37.8774532387224
 20
1177.070804840033
 30
0.0
  0
SPLINE
  5
122
330
1F
100
AcDbEntity
  8
Miura_Table_9553-01_2D
100
AcDbSpline
210
0.0
220
0.0
230
1.0
 70
     8
 71
     5
 72
    12
 73
     6
 74
     0
 42
0.0000000001
 43
0.0000000001
 40
-1.0
 40
-1.0
 40
-1.0
 40
-1.0
 40
-1.0
 40
-1.0
 40
0.0
 40
0.0
 40
0.0
 40
0.0
 40
0.0
 40
0.0
 10
-37.8774532387224
 20
1177.070804840033
 30
0.0
 10
-37.87412400066751
 20
1177.076191836615
 30
0.0
 10
-37.87079487125266
 20
1177.081578900337
 30
0.0
 10
-37.86748512989289
 20
1177.086977945599
 30
0.0
 10
-37.86415218950788
 20
1177.092362652334
 30
0.0
 10
-37.86081940502208
 20
1177.097747455559
 30
0.0
  0
SPLINE
  5
123
330
1F
100
AcDbEntity
  8
Miura_Table_9553-01_2D
100
AcDbSpline
210
0.0
220
0.0
230
1.0
 70
     8
 71
     3
 72
    15
 73
    11
 74
     0
 42
0.0000000001
 43
0.0000000001
 40
0.0
 40
0.0
 40
0.0
 40
0.0
 40
2.763377139235542
 40
5.271537957085918
 40
10.5998510122942
 40
21.59382453005134
 40
32.87822943471982
 40
38.64978450157578
 40
41.3966023543671
 40
44.15779849543482
 40
44.15779849543482
 40
44.15779849543482
 40
44.15779849543482
 10
-37.86081940502208
 20
1177.097747455559
 30
0.0
 10
-37.37612342374632
 20
1177.880874145484
 30
0.0
 10
-36.45864715388961
 20
1179.380114507577
 30
0.0
 10
-34.73652993045472
 20
1182.465746816883
 30
0.0
 10
-31.96750929676818
 20
1188.103348418402
 30
0.0
 10
-28.75385127014488
 20
1196.746645401483
 30
0.0
 10
-26.61472117540416
 20
1205.866763379845
 30
0.0
 10
-25.70014471754257
 20
1212.407142712135
 30
0.0
 10
-25.35120301620736
 20
1216.151226444278
 30
0.0
 10
-25.24440875249456
 20
1217.984453749153
 30
0.0
 10
-25.20428645085303
 20
1218.903939104046
 30
0.0
  0
SPLINE
  5
124
330
1F
100
AcDbEntity
  8
Miura_Table_9553-01_2D
100
AcDbSpline
210
0.0
220
0.0
230
1.0
 70
    12
 71
     2
 72
     6
 73
     3
 74
     0
 42
0.0000000001
 43
0.0000000001
 40
-0.0038962172915295
 40
-0.0038962172915295
 40
-0.0038962172915295
 40
0.0
 40
0.0
 40
0.0
 10
-25.20428645085303
 20
1218.903939104046
 30
0.0
 41
1.0
 10
-25.2042238041297
 20
1218.905886320006
 30
0.0
 41
0.99999999708734
 10
-25.20413791383817
 20
1218.907832536186
 30
0.0
 41
1.0
  0
SPLINE
  5
125
330
1F
100
AcDbEntity
  8
Miura_Table_9553-01_2D
100
AcDbSpline
210
0.0
220
0.0
230
1.0
 70
    12
 71
     2
 72
     6
 73
     3
 74
     0
 42
0.0000000001
 43
0.0000000001
 40
0.0
 40
0.0
 40
0.0
 40
0.0174069048050353
 40
0.0174069048050353
 40
0.0174069048050353
 10
-25.20413791383817
 20
1218.907832536186
 30
0.0
 41
1.0
 10
-25.2037631445702
 20
1218.916527916859
 30
0.0
 41
0.9999999593102531
 10
-25.2033881416537
 20
1218.92522328764
 30
0.0
 41
1.0
  0
SPLINE
  5
126
330
1F
100
AcDbEntity
  8
Miura_Table_9553-01_2D
100
AcDbSpline
210
0.0
220
0.0
230
1.0
 70
    12
 71
     2
 72
     6
 73
     3
 74
     0
 42
0.0000000001
 43
0.0000000001
 40
-0.8650636015552052
 40
-0.8650636015552052
 40
-0.8650636015552052
 40
0.0
 40
0.0
 40
0.0
 10
-25.20338814165378
 20
1218.92522328764
 30
0.0
 41
0.99999999999989
 10
-25.18268657971806
 20
1219.357260864603
 30
0.0
 41
0.9999949169942276
 10
-25.16473829311326
 20
1219.789421577277
 30
0.0
 41
1.0
  0
SPLINE
  5
127
330
1F
100
AcDbEntity
  8
Miura_Table_9553-01_2D
100
AcDbSpline
210
0.0
220
0.0
230
1.0
 70
    12
 71
     2
 72
     6
 73
     3
 74
     0
 42
0.0000000001
 43
0.0000000001
 40
-0.3764503268402766
 40
-0.3764503268402766
 40
-0.3764503268402766
 40
0.0
 40
0.0
 40
0.0
 10
-25.16473829311326
 20
1219.789421577277
 30
0.0
 41
1.0
 10
-25.15748051277211
 20
1219.977506950083
 30
0.0
 41
0.9999985034549736
 10
-25.15087357071206
 20
1220.165616309647
 30
0.0
 41
1.0
  0
SPLINE
  5
128
330
1F
100
AcDbEntity
  8
Miura_Table_9553-01_2D
100
AcDbSpline
210
0.0
220
0.0
230
1.0
 70
     8
 71
     5
 72
    12
 73
     6
 74
     0
 42
0.0000000001
 43
0.0000000001
 40
-1.0
 40
-1.0
 40
-1.0
 40
-1.0
 40
-1.0
 40
-1.0
 40
0.0
 40
0.0
 40
0.0
 40
0.0
 40
0.0
 40
0.0
 10
-25.15087357071206
 20
1220.165616309647
 30
0.0
 10
-25.14558536132336
 20
1220.316179410137
 30
0.0
 10
-25.14055776554142
 20
1220.466751664127
 30
0.0
 10
-25.13596288932058
 20
1220.617339651433
 30
0.0
 10
-25.130467951627
 20
1220.767895523716
 30
0.0
 10
-25.12474376451792
 20
1220.91844267935
 30
0.0
  0
SPLINE
  5
129
330
1F
100
AcDbEntity
  8
Miura_Table_9553-01_2D
100
AcDbSpline
210
0.0
220
0.0
230
1.0
 70
     8
 71
     3
 72
    15
 73
    11
 74
     0
 42
0.0000000001
 43
0.0000000001
 40
0.0
 40
0.0
 40
0.0
 40
0.0
 40
0.9361505302432512
 40
1.592389293923228
 40
2.107271700881923
 40
2.520270126564128
 40
2.899529664530076
 40
3.247808135525446
 40
3.588551735127003
 40
3.919177605417825
 40
3.919177605417825
 40
3.919177605417825
 40
3.919177605417825
 10
-25.12474376451792
 20
1220.91844267935
 30
0.0
 10
-25.11288759906347
 20
1221.23026197386
 30
0.0
 10
-25.09071062035127
 20
1221.760646780304
 30
0.0
 10
-25.03446806400189
 20
1222.461014890957
 30
0.0
 10
-24.95595641596719
 20
1222.983695987362
 30
0.0
 10
-24.84190574467266
 20
1223.405301659137
 30
0.0
 10
-24.67809069260693
 20
1223.750763679175
 30
0.0
 10
-24.45217730709192
 20
1224.029761757646
 30
0.0
 10
-24.17369056697044
 20
1224.230188730419
 30
0.0
 10
-23.96105738697497
 20
1224.306737988758
 30
0.0
 10
-23.85317771605605
 20
1224.329313519295
 30
0.0
  0
LINE
  5
12A
330
1F
100
AcDbEntity
  8
Miura_Table_9553-01_2D
100
AcDbLine
 10
-23.85317771605605
 20
1224.329313519295
 30
0.0
 11
-21.65143665921823
 21
1224.329221175301
 31
0.0
  0
SPLINE
  5
12B
330
1F
100
AcDbEntity
  8
Miura_Table_9553-01_2D
100
AcDbSpline
210
0.0
220
0.0
230
1.0
 70
     8
 71
     3
 72
    18
 73
    14
 74
     0
 42
0.0000000001
 43
0.0000000001
 40
-11.35744832993483
 40
-11.35744832993483
 40
-11.35744832993483
 40
-11.35744832993483
 40
-7.387935346890758
 40
-6.716881895257425
 40
-6.413782533532998
 40
-6.129926738348678
 40
-5.827549416049516
 40
-5.506991273313296
 40
-4.870777299577193
 40
-3.713958932632885
 40
-2.530514856758515
 40
-1.285072805565842
 40
0.0
 40
0.0
 40
0.0
 40
0.0
 10
-21.65143665921823
 20
1224.329221175301
 30
0.0
 10
-20.32825652256633
 20
1224.329110183663
 30
0.0
 10
-18.78142544933053
 20
1224.329415199694
 30
0.0
 10
-17.1335104396685
 20
1224.32906673342
 30
0.0
 10
-16.71421908591856
 20
1224.329636187102
 30
0.0
 10
-16.41762045299674
 20
1224.329969123182
 30
0.0
 10
-16.11645147704348
 20
1224.298836242054
 30
0.0
 10
-15.70476331581631
 20
1224.215344058427
 30
0.0
 10
-15.03840437676445
 20
1223.976496257064
 30
0.0
 10
-14.20278150870581
 20
1223.423022363815
 30
0.0
 10
-13.40931656732118
 20
1222.516701147129
 30
0.0
 10
-12.83364118890677
 20
1221.411371652381
 30
0.0
 10
-12.62175851959455
 20
1220.589307632965
 30
0.0
 10
-12.56097748010961
 20
1220.165330814492
 30
0.0
  0
SPLINE
  5
12C
330
1F
100
AcDbEntity
  8
Miura_Table_9553-01_2D
100
AcDbSpline
210
0.0
220
0.0
230
1.0
 70
    12
 71
     3
 72
    10
 73
     6
 74
     0
 42
0.0000000001
 43
0.0000000001
 40
-1.41140165102152
 40
-1.41140165102152
 40
-1.41140165102152
 40
-1.41140165102152
 40
-0.7080503722075561
 40
-0.7080503722075561
 40
-0.0049548029583888
 40
-0.0049548029583888
 40
-0.0049548029583888
 40
-0.0049548029583888
 10
-12.56097748010961
 20
1220.165330814492
 30
0.0
 41
1.0
 10
-12.52738359441264
 20
1219.931469076522
 30
0.0
 41
1.0
 10
-12.42343154325044
 20
1219.719484459902
 30
0.0
 41
1.0
 10
-12.10804415823804
 20
1219.412939171075
 30
0.0
 41
1.0
 10
-11.90764226904048
 20
1219.329215713201
 30
0.0
 41
1.0
 10
-11.69820925860404
 20
1219.329221081191
 30
0.0
 41
1.0
  0
SPLINE
  5
12D
330
1F
100
AcDbEntity
  8
Miura_Table_9553-01_2D
100
AcDbSpline
210
0.0
220
0.0
230
1.0
 70
    12
 71
     2
 72
     6
 73
     3
 74
     0
 42
0.0000000001
 43
0.0000000001
 40
0.0
 40
0.0
 40
0.0
 40
11.69797561871451
 40
11.69797561871451
 40
11.69797561871451
 10
-11.69820925860404
 20
1219.329221081191
 30
0.0
 41
1.0
 10
-5.849327785451351
 20
1219.329221048183
 30
0.0
 41
1.0
 10
-0.000446312299573
 20
1219.329221075086
 30
0.0
 41
1.0
  0
SPLINE
  5
12E
330
1F
100
AcDbEntity
  8
Miura_Table_9553-01_2D
100
AcDbSpline
210
0.0
220
0.0
230
1.0
 70
     8
 71
     3
 72
    13
 73
     9
 74
     0
 42
0.0000000001
 43
0.0000000001
 40
0.0
 40
0.0
 40
0.0
 40
0.0
 40
0.0842084935809858
 40
0.1523207872208179
 40
0.275918593398183
 40
0.3976132335562294
 40
0.4611173083935368
 40
0.5436834943217633
 40
0.5436834943217633
 40
0.5436834943217633
 40
0.5436834943217633
 10
-273.7944884392055
 20
851.6242074401047
 30
0.0
 10
-273.7665170900618
 20
851.6241755400411
 30
0.0
 10
-273.7153536640881
 20
851.6208448157712
 30
0.0
 10
-273.6267226968066
 20
851.5956697720493
 30
0.0
 10
-273.5446694802522
 20
851.5200952694076
 30
0.0
 10
-273.5367277981313
 20
851.410125016271
 30
0.0
 10
-273.5761632502899
 20
851.32898278886
 30
0.0
 10
-273.6073139912505
 20
851.291371645062
 30
0.0
 10
-273.6255661728419
 20
851.2707350527094
 30
0.0
  0
SPLINE
  5
12F
330
1F
100
AcDbEntity
  8
Miura_Table_9553-01_2D
100
AcDbSpline
210
0.0
220
0.0
230
1.0
 70
    24
 71
     2
 72
     6
 73
     3
 74
     0
 42
0.0000000001
 43
0.0000000001
 40
0.0
 40
0.0
 40
0.0
 40
0.5244136134753632
 40
0.5244136134753632
 40
0.5244136134753632
 10
-273.6255661728419
 20
851.2707350527094
 30
0.0
 10
-273.7973376071832
 20
851.0723905788577
 30
0.0
 10
-273.9691090415245
 20
850.8740461050061
 30
0.0
  0
SPLINE
  5
130
330
1F
100
AcDbEntity
  8
Miura_Table_9553-01_2D
100
AcDbSpline
210
0.0
220
0.0
230
1.0
 70
     8
 71
     3
 72
    12
 73
     8
 74
     0
 42
0.0000000001
 43
0.0000000001
 40
0.0
 40
0.0
 40
0.0
 40
0.0
 40
0.215147148445352
 40
0.4344126759933203
 40
1.014845999299492
 40
1.738325432821743
 40
2.240259627195611
 40
2.240259627195611
 40
2.240259627195611
 40
2.240259627195611
 10
-273.9691090415245
 20
850.8740461050061
 30
0.0
 10
-274.0161598991126
 20
850.8194846368356
 30
0.0
 10
-274.1119767428827
 20
850.7108558328162
 30
0.0
 10
-274.348308831889
 20
850.4686965581903
 30
0.0
 10
-274.7203143896404
 20
850.1229463350755
 30
0.0
 10
-275.1741159764733
 20
849.7274410581628
 30
0.0
 10
-275.4923279580034
 20
849.4710395321209
 30
0.0
 10
-275.6291304046054
 20
849.3741621280301
 30
0.0
  0
SPLINE
  5
131
330
1F
100
AcDbEntity
  8
Miura_Table_9553-01_2D
100
AcDbSpline
210
0.0
220
0.0
230
1.0
 70
     8
 71
     3
 72
    11
 73
     7
 74
     0
 42
0.0000000001
 43
0.0000000001
 40
0.0
 40
0.0
 40
0.0
 40
0.0
 40
2.849025153143938
 40
5.681848556468799
 40
11.31563454753918
 40
22.64754464670963
 40
22.64754464670963
 40
22.64754464670963
 40
22.64754464670963
 10
-275.6291304046054
 20
849.3741621280301
 30
0.0
 10
-276.4014586435296
 20
848.8212550995722
 30
0.0
 10
-277.9840786334789
 20
847.7779439520615
 30
0.0
 10
-281.2858066329118
 20
845.9490895345723
 30
0.0
 10
-287.407448189414
 20
843.4299660069285
 30
0.0
 10
-293.0614470593709
 20
842.5367172045177
 30
0.0
 10
-296.8389029056652
 20
842.537052451596
 30
0.0
  0
SPLINE
  5
132
330
1F
100
AcDbEntity
  8
Miura_Table_9553-01_2D
100
AcDbSpline
210
0.0
220
0.0
230
1.0
 70
     8
 71
     5
 72
    12
 73
     6
 74
     0
 42
0.0000000001
 43
0.0000000001
 40
-1.0
 40
-1.0
 40
-1.0
 40
-1.0
 40
-1.0
 40
-1.0
 40
0.0
 40
0.0
 40
0.0
 40
0.0
 40
0.0
 40
0.0
 10
-296.8389029056652
 20
842.537052451596
 30
0.0
 10
-296.9078343592955
 20
842.5370585692235
 30
0.0
 10
-296.9767657982238
 20
842.5372303411119
 30
0.0
 10
-297.0456979766069
 20
842.5375592856418
 30
0.0
 10
-297.1146278796569
 20
842.5380505784422
 30
0.0
 10
-297.1835561994758
 20
842.5387078941506
 30
0.0
  0
SPLINE
  5
133
330
1F
100
AcDbEntity
  8
Miura_Table_9553-01_2D
100
AcDbSpline
210
0.0
220
0.0
230
1.0
 70
     8
 71
     3
 72
    12
 73
     8
 74
     0
 42
0.0000000001
 43
0.0000000001
 40
0.0
 40
0.0
 40
0.0
 40
0.0
 40
2.765242495116511
 40
5.467131183712466
 40
11.12386283924205
 40
16.6939552205985
 40
22.3034199774177
 40
22.3034199774177
 40
22.3034199774177
 40
22.3034199774177
 10
-297.1835561994758
 20
842.5387078941506
 30
0.0
 10
-298.1052679878094
 20
842.5474975416943
 30
0.0
 10
-299.9268517277842
 20
842.6353070393343
 30
0.0
 10
-303.6092716050916
 20
843.0907984023086
 30
0.0
 10
-308.1348003948451
 20
844.1900861032323
 30
0.0
 10
-313.3341027480437
 20
846.3458898783368
 30
0.0
 10
-316.5285000429967
 20
848.2859672958705
 30
0.0
 10
-318.0490637349521
 20
849.3742402113996
 30
0.0
  0
SPLINE
  5
134
330
1F
100
AcDbEntity
  8
Miura_Table_9553-01_2D
100
AcDbSpline
210
0.0
220
0.0
230
1.0
 70
     8
 71
     3
 72
    16
 73
    12
 74
     0
 42
0.0000000001
 43
0.0000000001
 40
0.0
 40
0.0
 40
0.0
 40
0.0
 40
0.1450445684408275
 40
0.2674563255525638
 40
0.5165020686838146
 40
0.7647651081847263
 40
0.9971024939488223
 40
1.19489142016583
 40
1.37708050099132
 40
1.556352254818321
 40
1.789706299665248
 40
1.789706299665248
 40
1.789706299665248
 40
1.789706299665248
 10
-318.0490637349521
 20
849.3742402113996
 30
0.0
 10
-318.0885090427901
 20
849.4023818509473
 30
0.0
 10
-318.1606535780438
 20
849.4548408231418
 30
0.0
 10
-318.2912548512031
 20
849.5672878928624
 30
0.0
 10
-318.4296448107671
 20
849.7216412229242
 30
0.0
 10
-318.5595050429729
 20
849.9284012777517
 30
0.0
 10
-318.641644487011
 20
850.1404496591112
 30
0.0
 10
-318.6686290965827
 20
850.344534467001
 30
0.0
 10
-318.6392602955821
 20
850.5308549877369
 30
0.0
 10
-318.5507330888321
 20
850.7104032565587
 30
0.0
 10
-318.4609814860723
 20
850.8155255790448
 30
0.0
 10
-318.4099486302484
 20
850.8742388524273
 30
0.0
  0
SPLINE
  5
135
330
1F
100
AcDbEntity
  8
Miura_Table_9553-01_2D
100
AcDbSpline
210
0.0
220
0.0
230
1.0
 70
    24
 71
     2
 72
     6
 73
     3
 74
     0
 42
0.0000000001
 43
0.0000000001
 40
0.0
 40
0.0
 40
0.0
 40
0.5244495011189884
 40
0.5244495011189884
 40
0.5244495011189884
 10
-318.4099486302484
 20
850.8742388524273
 30
0.0
 10
-318.2381921772649
 20
851.0725668711998
 30
0.0
 10
-318.0664357242813
 20
851.2708948899726
 30
0.0
  0
SPLINE
  5
136
330
1F
100
AcDbEntity
  8
Miura_Table_9553-01_2D
100
AcDbSpline
210
0.0
220
0.0
230
1.0
 70
     8
 71
     3
 72
    12
 73
     8
 74
     0
 42
0.0000000001
 43
0.0000000001
 40
0.0
 40
0.0
 40
0.0
 40
0.0
 40
0.0890023797843848
 40
0.1797960093845599
 40
0.411193526615116
 40
0.6556287843923316
 40
0.8529811660911645
 40
0.8529811660911645
 40
0.8529811660911645
 40
0.8529811660911645
 10
-318.0664357242813
 20
851.2708948899726
 30
0.0
 10
-318.0471237622905
 20
851.2936226943169
 30
0.0
 10
-318.0063300854381
 20
851.3377507555913
 30
0.0
 10
-317.8976534435242
 20
851.4220032707836
 30
0.0
 10
-317.7311322629685
 20
851.5122604542055
 30
0.0
 10
-317.521625614615
 20
851.594060664264
 30
0.0
 10
-317.3761066306843
 20
851.6219095181629
 30
0.0
 10
-317.3102167472907
 20
851.6236933426087
 30
0.0
  0
SPLINE
  5
137
330
1F
100
AcDbEntity
  8
Miura_Table_9553-01_2D
100
AcDbSpline
210
0.0
220
0.0
230
1.0
 70
    24
 71
     2
 72
     6
 73
     3
 74
     0
 42
0.0000000001
 43
0.0000000001
 40
0.0
 40
0.0
 40
0.0
 40
0.0064177164707695
 40
0.0064177164707695
 40
0.0064177164707695
 10
283.0665179286133
 20
-192.4461548493711
 30
0.0
 10
283.0637497874213
 20
-192.4445318381217
 30
0.0
 10
283.0609816462293
 20
-192.4429088268723
 30
0.0
  0
SPLINE
  5
138
330
1F
100
AcDbEntity
  8
Miura_Table_9553-01_2D
100
AcDbSpline
210
0.0
220
0.0
230
1.0
 70
     8
 71
     3
 72
    21
 73
    17
 74
     0
 42
0.0000000001
 43
0.0000000001
 40
0.0
 40
0.0
 40
0.0
 40
0.0
 40
0.6474029094493622
 40
1.239961029460211
 40
2.476453098401548
 40
4.946873970820978
 40
9.81187462871942
 40
14.60310952278444
 40
19.26181656972225
 40
23.71952366727886
 40
28.04749662437723
 40
30.1563342873369
 40
32.34208490377009
 40
34.43000439321898
 40
35.44727884989575
 40
36.53847946972826
 40
36.53847946972826
 40
36.53847946972826
 40
36.53847946972826
 10
314.0920039379071
 20
-181.3468765236796
 30
0.0
 10
313.9833747923012
 20
-181.533337962098
 30
0.0
 10
313.7740366529133
 20
-181.8897592484489
 30
0.0
 10
313.3382419798618
 20
-182.5908954632085
 30
0.0
 10
312.5453192995428
 20
-183.7850566833573
 30
0.0
 10
310.8169979320063
 20
-186.0635784804133
 30
0.0
 10
307.9776351089504
 20
-188.9609432336235
 30
0.0
 10
304.087902061442
 20
-191.7569923460842
 30
0.0
 10
299.8746191996762
 20
-193.7399869925092
 30
0.0
 10
295.5088321523917
 20
-194.8439092327275
 30
0.0
 10
291.8600497412308
 20
-194.9996764552713
 30
0.0
 10
289.0025537241308
 20
-194.6496318303305
 30
0.0
 10
286.9290666119896
 20
-194.1576719484749
 30
0.0
 10
285.2707322675105
 20
-193.5490039580934
 30
0.0
 10
284.0003326397336
 20
-192.9621052943803
 30
0.0
 10
283.3839350887192
 20
-192.6236590102625
 30
0.0
 10
283.0665179286143
 20
-192.4461548493713
 30
0.0
  0
SPLINE
  5
139
330
1F
100
AcDbEntity
  8
Miura_Table_9553-01_2D
100
AcDbSpline
210
0.0
220
0.0
230
1.0
 70
    24
 71
     2
 72
     6
 73
     3
 74
     0
 42
0.0000000001
 43
0.0000000001
 40
0.0
 40
0.0
 40
0.0
 40
0.0049999976354462
 40
0.0049999976354462
 40
0.0049999976354462
 10
314.0945029797867
 20
-181.3425458463608
 30
0.0
 10
314.0932534588469
 20
-181.3447111850202
 30
0.0
 10
314.0920039379071
 20
-181.3468765236796
 30
0.0
  0
SPLINE
  5
13A
330
1F
100
AcDbEntity
  8
Miura_Table_9553-01_2D
100
AcDbSpline
210
0.0
220
0.0
230
1.0
 70
     8
 71
     3
 72
    21
 73
    17
 74
     0
 42
0.0000000001
 43
0.0000000001
 40
0.0
 40
0.0
 40
0.0
 40
0.0
 40
1.091200619832589
 40
2.108475076510265
 40
4.196394565957977
 40
6.382145182392394
 40
8.490982845352112
 40
12.81895580244948
 40
17.27666290000627
 40
21.93536994694479
 40
26.72660484100899
 40
31.591605498907
 40
34.06202637132719
 40
35.29851844026861
 40
35.89107656027873
 40
36.53847946972913
 40
36.53847946972913
 40
36.53847946972913
 40
36.53847946972913
 10
308.1965179244971
 20
-148.9197180622961
 30
0.0
 10
308.5089404992941
 20
-149.1058711441284
 30
0.0
 10
309.1102677447816
 20
-149.4704254059214
 30
0.0
 10
310.2537078339783
 20
-150.2773367782505
 30
0.0
 10
311.6099442472723
 20
-151.4088108428403
 30
0.0
 10
313.0729272985218
 20
-152.958972342571
 30
0.0
 10
314.8045830313013
 20
-155.2582731863513
 30
0.0
 10
316.4942704343112
 20
-158.4962452053456
 30
0.0
 10
317.7210563332947
 20
-162.8290779082803
 30
0.0
 10
318.1103824101992
 20
-167.4693170870758
 30
0.0
 10
317.6336097370586
 20
-172.2359495815191
 30
0.0
 10
316.5444464997372
 20
-176.1436660087201
 30
0.0
 10
315.434998505355
 20
-178.7795782701248
 30
0.0
 10
314.7976459644733
 20
-180.0635053409805
 30
0.0
 10
314.4081652919476
 20
-180.7914042969088
 30
0.0
 10
314.2041724798519
 20
-181.1509114762431
 30
0.0
 10
314.0970039354206
 20
-181.3382162739491
 30
0.0
  0
SPLINE
  5
13B
330
1F
100
AcDbEntity
  8
Miura_Table_9553-01_2D
100
AcDbSpline
210
0.0
220
0.0
230
1.0
 70
    24
 71
     2
 72
     6
 73
     3
 74
     0
 42
0.0000000001
 43
0.0000000001
 40
0.0
 40
0.0
 40
0.0
 40
0.0064177164631026
 40
0.0064177164631026
 40
0.0064177164631026
 10
308.1909386453663
 20
-148.9165465123622
 30
0.0
 10
308.1937282849317
 20
-148.9181322873291
 30
0.0
 10
308.1965179244971
 20
-148.9197180622961
 30
0.0
  0
SPLINE
  5
13C
330
1F
100
AcDbEntity
  8
Miura_Table_9553-01_2D
100
AcDbSpline
210
0.0
220
0.0
230
1.0
 70
    24
 71
     2
 72
     6
 73
     3
 74
     0
 42
0.0000000001
 43
0.0000000001
 40
0.0
 40
0.0
 40
0.0
 40
0.0049689727683289
 40
0.0049689727683289
 40
0.0049689727683289
 10
314.0970039354206
 20
-181.3382162739486
 30
0.0
 10
314.095761216789
 20
-181.3403676277075
 30
0.0
 10
314.0945184981574
 20
-181.3425189814663
 30
0.0
  0
SPLINE
  5
13D
330
1F
100
AcDbEntity
  8
Miura_Table_9553-01_2D
100
AcDbSpline
210
0.0
220
0.0
230
1.0
 70
    24
 71
     2
 72
     6
 73
     3
 74
     0
 42
0.0000000001
 43
0.0000000001
 40
0.0
 40
0.0
 40
0.0
 40
0.0064177164451132
 40
0.0064177164451132
 40
0.0064177164451132
 10
25.12999999588374
 20
341.3658729116685
 30
0.0
 10
25.12997849750718
 20
341.362664125463
 30
0.0
 10
25.12995699913063
 20
341.3594553392576
 30
0.0
  0
SPLINE
  5
13E
330
1F
100
AcDbEntity
  8
Miura_Table_9553-01_2D
100
AcDbSpline
210
0.0
220
0.0
230
1.0
 70
     8
 71
     3
 72
    21
 73
    17
 74
     0
 42
0.0000000001
 43
0.0000000001
 40
0.0
 40
0.0
 40
0.0
 40
0.0
 40
0.6474029094497073
 40
1.239961029460452
 40
2.4764530984018
 40
4.946873970821248
 40
9.811874628719307
 40
14.60310952278406
 40
19.26181656972217
 40
23.71952366727891
 40
28.04749662437723
 40
30.15633428733689
 40
32.34208490377012
 40
34.43000439321898
 40
35.44727884989555
 40
36.5384794697283
 40
36.5384794697283
 40
36.5384794697283
 40
36.5384794697283
 10
0.0049999975135506
 20
362.6850927976295
 30
0.0
 10
0.2207949128123801
 20
362.6842479171514
 30
0.0
 10
0.634133870938058
 20
362.6811664136364
 30
0.0
 10
1.459232980959314
 20
362.6543252633205
 30
0.0
 10
2.889868273977299
 20
362.5647146890003
 30
0.0
 10
5.727286717078641
 20
362.2072053773397
 30
0.0
 10
9.656159608911368
 20
361.1969274186164
 30
0.0
 10
14.02247569428891
 20
359.2263443417654
 30
0.0
 10
17.84644086454227
 20
356.5690316733587
 30
0.0
 10
20.98535909201746
 20
353.3401103030067
 30
0.0
 10
22.94464866939779
 20
350.2580556533308
 30
0.0
 10
24.0702491402908
 20
347.6083691988407
 30
0.0
 10
24.68094294103048
 20
345.5666967443788
 30
0.0
 10
24.98298817113027
 20
343.8262030788998
 30
0.0
 10
25.1099188327953
 20
342.4325553964306
 30
0.0
 10
25.12501452843844
 20
341.7295163163628
 30
0.0
 10
25.12999999588374
 20
341.3658729116689
 30
0.0
  0
SPLINE
  5
13F
330
1F
100
AcDbEntity
  8
Miura_Table_9553-01_2D
100
AcDbSpline
210
0.0
220
0.0
230
1.0
 70
    24
 71
     2
 72
     6
 73
     3
 74
     0
 42
0.0000000001
 43
0.0000000001
 40
0.0
 40
0.0
 40
0.0
 40
0.0049999976354052
 40
0.0049999976354052
 40
0.0049999976354052
 10
0.0000000000009095
 20
362.6850916927228
 30
0.0
 10
0.0024999987572301
 20
362.6850922451762
 30
0.0
 10
0.0049999975135506
 20
362.6850927976295
 30
0.0
  0
SPLINE
  5
140
330
1F
100
AcDbEntity
  8
Miura_Table_9553-01_2D
100
AcDbSpline
210
0.0
220
0.0
230
1.0
 70
     8
 71
     3
 72
    21
 73
    17
 74
     0
 42
0.0000000001
 43
0.0000000001
 40
0.0
 40
0.0
 40
0.0
 40
0.0
 40
1.091200619832775
 40
2.108475076510289
 40
4.196394565958102
 40
6.382145182392427
 40
8.490982845352077
 40
12.81895580244936
 40
17.27666290000615
 40
21.93536994694509
 40
26.72660484100907
 40
31.5916054989074
 40
34.06202637132732
 40
35.29851844026865
 40
35.89107656027872
 40
36.53847946972933
 40
36.53847946972933
 40
36.53847946972933
 40
36.53847946972933
 10
-25.12999999588192
 20
341.3658729116685
 30
0.0
 10
-25.12499798542376
 20
341.7295153390752
 30
0.0
 10
-25.10994835639485
 20
342.4325571405516
 30
0.0
 10
-24.982862653952
 20
343.8262609916644
 30
0.0
 10
-24.68109557694243
 20
345.566533211412
 30
0.0
 10
-24.07010786383125
 20
347.6085944489647
 30
0.0
 10
-22.94468278856584
 20
350.2579027260498
 30
0.0
 10
-20.98536046487607
 20
353.3402009510077
 30
0.0
 10
-17.84641022328015
 20
356.5690450560007
 30
0.0
 10
-14.02250825326155
 20
359.2263309183512
 30
0.0
 10
-9.656097085994588
 20
361.1967499188062
 30
0.0
 10
-5.727333770593759
 20
362.2073651000163
 30
0.0
 10
-2.88984279287979
 20
362.5645110834067
 30
0.0
 10
-1.459253062470451
 20
362.6545111272628
 30
0.0
 10
-0.6341337389876572
 20
362.681160448538
 30
0.0
 10
-0.2207949827907214
 20
362.6842510807414
 30
0.0
 10
-0.0049999975117316
 20
362.6850927976295
 30
0.0
  0
SPLINE
  5
141
330
1F
100
AcDbEntity
  8
Miura_Table_9553-01_2D
100
AcDbSpline
210
0.0
220
0.0
230
1.0
 70
    24
 71
     2
 72
     6
 73
     3
 74
     0
 42
0.0000000001
 43
0.0000000001
 40
0.0
 40
0.0
 40
0.0
 40
0.0064177164454542
 40
0.0064177164454542
 40
0.0064177164454542
 10
-25.12995699912881
 20
341.3594553392572
 30
0.0
 10
-25.12997849750536
 20
341.3626641254629
 30
0.0
 10
-25.12999999588192
 20
341.3658729116685
 30
0.0
  0
SPLINE
  5
142
330
1F
100
AcDbEntity
  8
Miura_Table_9553-01_2D
100
AcDbSpline
210
0.0
220
0.0
230
1.0
 70
    24
 71
     2
 72
     6
 73
     3
 74
     0
 42
0.0000000001
 43
0.0000000001
 40
0.0
 40
0.0
 40
0.0
 40
0.004968972768345
 40
0.004968972768345
 40
0.004968972768345
 10
-0.0049999975126411
 20
362.6850927976295
 30
0.0
 10
-0.0025155111893582
 20
362.6850922486042
 30
0.0
 10
-0.0000310248660753
 20
362.6850916995788
 30
0.0
  0
SPLINE
  5
143
330
1F
100
AcDbEntity
  8
Miura_Table_9553-01_2D
100
AcDbSpline
210
0.0
220
0.0
230
1.0
 70
     8
 71
     3
 72
    16
 73
    12
 74
     0
 42
0.0000000001
 43
0.0000000001
 40
0.0
 40
0.0
 40
0.0
 40
0.0
 40
1.953155402088032
 40
3.893592821351477
 40
7.847355141483413
 40
11.91041431591795
 40
16.08262218382918
 40
20.36384898894159
 40
24.75401732875273
 40
29.18049074721571
 40
33.7142689607704
 40
33.7142689607704
 40
33.7142689607704
 40
33.7142689607704
 10
311.0890678691057
 20
-150.993479551156
 30
0.0
 10
311.5965982939906
 20
-151.4012487369625
 30
0.0
 10
312.5669657744757
 20
-152.2657110115049
 30
0.0
 10
314.3325261163937
 20
-154.2005588067849
 30
0.0
 10
316.1804890668109
 20
-156.977574526749
 30
0.0
 10
317.7405468272564
 20
-160.7489433907572
 30
0.0
 10
318.6041799365184
 20
-164.8479752256353
 30
0.0
 10
318.7465998719399
 20
-169.1422178697456
 30
0.0
 10
318.1678353979178
 20
-173.4841312815921
 30
0.0
 10
316.887062063387
 20
-177.760068977952
 30
0.0
 10
315.5944804775345
 20
-180.4625866026945
 30
0.0
 10
314.8387969368987
 20
-181.7713961771472
 30
0.0
  0
SPLINE
  5
144
330
1F
100
AcDbEntity
  8
Miura_Table_9553-01_2D
100
AcDbSpline
210
0.0
220
0.0
230
1.0
 70
     8
 71
     3
 72
    16
 73
    12
 74
     0
 42
0.0000000001
 43
0.0000000001
 40
0.0
 40
0.0
 40
0.0
 40
0.0
 40
4.517138909949261
 40
8.979902653169208
 40
13.351933162907
 40
17.61498633655948
 40
21.78720834057714
 40
25.85028218879171
 40
29.82218011666199
 40
31.76261295261775
 40
33.71577125458974
 40
33.71577125458974
 40
33.71577125458974
 40
33.71577125458974
 10
314.838796975685
 20
-181.7713961912368
 30
0.0
 10
314.0859480232357
 20
-183.0754122214324
 30
0.0
 10
312.3890707276014
 20
-185.5521306210826
 30
0.0
 10
309.3258840780691
 20
-188.7997996705994
 30
0.0
 10
305.8542044765845
 20
-191.4706918756248
 30
0.0
 10
302.0756309662738
 20
-193.4900423834896
 30
0.0
 10
298.1007198544503
 20
-194.792774747091
 30
0.0
 10
294.049019938896
 20
-195.3316700064883
 30
0.0
 10
290.7137938424594
 20
-195.1209858804566
 30
0.0
 10
288.1494467421498
 20
-194.5580734590921
 30
0.0
 10
286.9156351980791
 20
-194.1499601684706
 30
0.0
 10
286.3087255693281
 20
-193.9142966940705
 30
0.0
  0
SPLINE
  5
145
330
1F
100
AcDbEntity
  8
Miura_Table_9553-01_2D
100
AcDbSpline
210
0.0
220
0.0
230
1.0
 70
     8
 71
     3
 72
    16
 73
    12
 74
     0
 42
0.0000000001
 43
0.0000000001
 40
0.0
 40
0.0
 40
0.0
 40
0.0
 40
1.953155402089814
 40
3.893592821353496
 40
7.847355141485272
 40
11.91041431592
 40
16.08262218383097
 40
20.36384898894331
 40
24.75401732875448
 40
29.18049074721741
 40
33.71426896077235
 40
33.71426896077235
 40
33.71426896077235
 40
33.71426896077235
 10
-24.78034483744432
 20
344.9077753898436
 30
0.0
 10
-24.68097157609827
 20
345.5511942238919
 30
0.0
 10
-24.41750902597141
 20
346.8237882502723
 30
0.0
 10
-23.62466185376434
 20
349.3202322559276
 30
0.0
 10
-22.1436771687795
 20
352.3091229762244
 30
0.0
 10
-19.65760480572862
 20
355.5458570601426
 30
0.0
 10
-16.53955566043351
 20
358.3433011897528
 30
0.0
 10
-12.89184240833038
 20
360.6137617938907
 30
0.0
 10
-8.842252855626613
 20
362.2834937625015
 30
0.0
 10
-4.498795518312363
 20
363.3122803664881
 30
0.0
 10
-1.512055808184414
 20
363.5441306890432
 30
0.0
 10
-0.0007516976729676
 20
363.5440943328582
 30
0.0
  0
SPLINE
  5
146
330
1F
100
AcDbEntity
  8
Miura_Table_9553-01_2D
100
AcDbSpline
210
0.0
220
0.0
230
1.0
 70
     8
 71
     3
 72
    16
 73
    12
 74
     0
 42
0.0000000001
 43
0.0000000001
 40
0.0
 40
0.0
 40
0.0
 40
0.0
 40
4.517138909948996
 40
8.979902653169411
 40
13.35193316290711
 40
17.61498633656025
 40
21.78720834057659
 40
25.85028218879138
 40
29.82218011666214
 40
31.76261295261828
 40
33.71577125458813
 40
33.71577125458813
 40
33.71577125458813
 40
33.71577125458813
 10
-0.0007517048643422
 20
363.5440943734932
 30
0.0
 10
1.504983780451766
 20
363.5441160705578
 30
0.0
 10
4.498323480385806
 20
363.3129364252621
 30
0.0
 10
8.842480705117848
 20
362.2839734949893
 30
0.0
 10
12.89138100618311
 20
360.6128568688166
 30
0.0
 10
16.52947660029076
 20
358.350191472749
 30
0.0
 10
19.64513147741491
 20
355.559183653921
 30
0.0
 10
22.1376784198128
 20
352.3197562282452
 30
0.0
 10
23.62283366271276
 20
349.3260236383513
 30
0.0
 10
24.41751075585945
 20
346.8237776946791
 30
0.0
 10
24.68098005059529
 20
345.5512089087209
 30
0.0
 10
24.78034430939442
 20
344.9077780152224
 30
0.0
  0
SPLINE
  5
147
330
1F
100
AcDbEntity
  8
Miura_Table_9553-01_2D
100
AcDbSpline
210
0.0
220
0.0
230
1.0
 70
    15
 71
     2
 72
    12
 73
     9
 74
     0
 42
0.0000000001
 43
0.0000000001
 40
0.0
 40
0.0
 40
0.0
 40
471.2388981516788
 40
471.2388981516788
 40
942.4777963033577
 40
942.4777963033577
 40
1413.716694455037
 40
1413.716694455037
 40
1884.955592606716
 40
1884.955592606716
 40
1884.955592606716
 10
-0.0005432404745989
 20
299.9998522718791
 30
0.0
 41
1.0
 10
299.999456831597
 20
299.9998544726172
 30
0.0
 41
0.7071067811865476
 10
299.9994590323354
 20
-0.0001455994545836
 30
0.0
 41
1.0
 10
299.9994612330731
 20
-300.0001456715262
 30
0.0
 41
0.7071067811865476
 10
-0.0005388389986365
 20
-300.0001478722642
 30
0.0
 41
1.0
 10
-300.00053891107
 20
-300.0001500730022
 30
0.0
 41
0.7071067811865476
 10
-300.0005411118082
 20
-0.0001500009306028
 30
0.0
 41
1.0
 10
-300.0005433125461
 20
299.9998500711409
 30
0.0
 41
0.7071067811865476
 10
-0.0005432404745989
 20
299.9998522718791
 30
0.0
 41
1.0
  0
SPLINE
  5
148
330
1F
100
AcDbEntity
  8
Miura_Table_9553-01_2D
 62
     9
100
AcDbSpline
210
0.0
220
0.0
230
1.0
 70
    15
 71
     2
 72
    12
 73
     9
 74
     0
 42
0.0000000001
 43
0.0000000001
 40
0.0
 40
0.0
 40
0.0
 40
78.53981633974519
 40
78.53981633974519
 40
157.0796326794904
 40
157.0796326794904
 40
235.6194490192356
 40
235.6194490192356
 40
314.1592653589807
 40
314.1592653589807
 40
314.1592653589807
 10
50.00000000000091
 20
0.00000000000054
 30
0.0
 41
1.0
 10
50.00000000000028
 20
50.0000000000008
 30
0.0
 41
0.7071067811865476
 10
0.0
 20
50.00000000000063
 30
0.0
 41
1.0
 10
-49.99999999999989
 20
50.00000000000048
 30
0.0
 41
0.7071067811865476
 10
-50.0
 20
0.0000000000002558
 30
0.0
 41
1.0
 10
-49.99999999999989
 20
-50.0
 30
0.0
 41
0.7071067811865476
 10
0.0000000000009095
 20
-49.99999999999983
 30
0.0
 41
1.0
 10
50.00000000000028
 20
-49.99999999999968
 30
0.0
 41
0.7071067811865476
 10
50.00000000000091
 20
0.00000000000054
 30
0.0
 41
1.0
  0
SPLINE
  5
149
330
1F
100
AcDbEntity
  8
Miura_Table_9553-01_2D
 62
     9
100
AcDbSpline
210
0.0
220
0.0
230
1.0
 70
    11
 71
     3
 72
    39
 73
    35
 74
     0
 42
0.0000000001
 43
0.0000000001
 40
0.0
 40
0.0
 40
0.0
 40
0.0
 40
17.98133963208148
 40
35.96416715575479
 40
53.94353992342775
 40
71.91786655367305
 40
89.89514452286815
 40
107.8785487581381
 40
125.8540793452332
 40
143.8357162912548
 40
161.8170559233368
 40
179.79988344701
 40
197.7792562146827
 40
215.7535828449282
 40
233.7308608141233
 40
251.7142650493934
 40
269.689795636488
 40
287.6714325825098
 40
305.6527722145915
 40
323.6355997382645
 40
341.6149725059374
 40
359.5892991361829
 40
377.566577105378
 40
395.5499813406479
 40
413.5255119277426
 40
431.5071488737649
 40
449.4884885058464
 40
467.4713160295196
 40
485.4506887971928
 40
503.4250154274383
 40
521.4022933966333
 40
539.3856976319033
 40
557.3612282189978
 40
575.3428651650199
 40
575.3428651650199
 40
575.3428651650199
 40
575.3428651650199
 10
91.56921938165394
 20
0.0000000000004832
 30
0.0
 10
91.56948691078923
 20
-5.993797758919327
 30
0.0
 10
90.38825195473783
 20
-17.98174947099955
 30
0.0
 10
85.14279807375258
 20
-35.2717548485829
 30
0.0
 10
76.62575404482412
 20
-51.20389460220589
 30
0.0
 10
65.16571066203503
 20
-65.16709423389571
 30
0.0
 10
51.20133713873838
 20
-76.62789339838411
 30
0.0
 10
35.268512103763
 20
-85.14365339470412
 30
0.0
 10
17.97978371751196
 20
-90.38902608036613
 30
0.0
 10
-0.000052518492339
 20
-92.15914192328604
 30
0.0
 10
-17.98169311200763
 20
-90.38880554516778
 30
0.0
 10
-35.27179000819069
 20
-85.14245923356641
 30
0.0
 10
-51.2038729132919
 20
-76.62596259549684
 30
0.0
 10
-65.16710759702253
 20
-65.16558220256277
 30
0.0
 10
-76.62788516343699
 20
-51.20141629862089
 30
0.0
 10
-85.14365846745112
 20
-35.26846334126054
 30
0.0
 10
-90.38902295525986
 20
-17.97981375801263
 30
0.0
 10
-92.15914384876123
 20
0.0000710273775724
 30
0.0
 10
-90.38880435888586
 20
17.98168170872125
 30
0.0
 10
-85.1424599644106
 20
35.27179703352107
 30
0.0
 10
-76.6259621453255
 20
51.2038685859626
 30
0.0
 10
-65.16558247987814
 20
65.16711026274153
 30
0.0
 10
-51.20141612773022
 20
76.62788352073916
 30
0.0
 10
-35.26846344652859
 20
85.14365947935699
 30
0.0
 10
-17.97981369316039
 20
90.38902233187071
 30
0.0
 10
0.000070987419349
 20
92.1591442328517
 30
0.0
 10
17.98168173334034
 20
90.38880412225063
 30
0.0
 10
35.27179701835394
 20
85.14246011019793
 30
0.0
 10
51.20386859530389
 20
76.62596205552756
 30
0.0
 10
65.16716284761696
 20
65.16563143990509
 30
0.0
 10
76.62767261086992
 20
51.20128801855694
 30
0.0
 10
85.14394899013405
 20
35.26863691346529
 30
0.0
 10
90.38877489611422
 20
17.97961758881644
 30
0.0
 10
91.56877104474006
 20
5.993823343227575
 30
0.0
 10
91.56921938165394
 20
0.0000000000004832
 30
0.0
  0
SPLINE
  5
14A
330
1F
100
AcDbEntity
  8
Miura_Table_9553-01_2D
 62
     9
100
AcDbSpline
210
0.0
220
0.0
230
1.0
 70
    11
 71
     3
 72
    39
 73
    35
 74
     0
 42
0.0000000001
 43
0.0000000001
 40
0.0
 40
0.0
 40
0.0
 40
0.0
 40
27.49163491281068
 40
54.98554466015822
 40
82.47417243782985
 40
109.9550851858812
 40
137.4405102302657
 40
164.9353017108435
 40
192.4180551861614
 40
219.9101446616718
 40
247.4017795744827
 40
274.8956893218303
 40
302.3843170995021
 40
329.8652298475533
 40
357.3506548919382
 40
384.8454463725157
 40
412.3281998478335
 40
439.8202893233441
 40
467.311924236154
 40
494.8058339835014
 40
522.2944617611731
 40
549.7753745092244
 40
577.2607995536105
 40
604.755591034188
 40
632.2383445095058
 40
659.7304339850166
 40
687.2220688978269
 40
714.7159786451745
 40
742.2046064228462
 40
769.6855191708972
 40
797.1709442152831
 40
824.6657356958603
 40
852.1484891711782
 40
879.6405786466888
 40
879.6405786466888
 40
879.6405786466888
 40
879.6405786466888
 10
140.0000000000009
 20
0.0000000000005116
 30
0.0
 10
140.0004090247703
 20
-9.163905643350943
 30
0.0
 10
138.1944212161624
 20
-27.49226151472897
 30
0.0
 10
130.1746570607302
 20
-53.92691684113075
 30
0.0
 10
117.1529651417422
 20
-78.28553407702433
 30
0.0
 10
99.63172728010432
 20
-99.63384262040996
 30
0.0
 10
78.28162397614232
 20
-117.156235995207
 30
0.0
 10
53.92195901493142
 20
-130.1759647592557
 30
0.0
 10
27.4892560780745
 20
-138.1956047753177
 30
0.0
 10
-0.0000802954209576
 20
-140.9019314174166
 30
0.0
 10
-27.49217534757645
 20
-138.1952675994851
 30
0.0
 10
-53.92697059658713
 20
-130.1741390086331
 30
0.0
 10
-78.2855009168843
 20
-117.1532839944569
 30
0.0
 10
-99.63386305126551
 20
-99.63153087866849
 30
0.0
 10
-117.156223404816
 20
-78.28174500353094
 30
0.0
 10
-130.1759725149677
 20
-53.9218844620375
 30
0.0
 10
-138.1955999973516
 20
-27.48930200693806
 30
0.0
 10
-140.9019343612681
 20
0.0001085936183927
 30
0.0
 10
-138.1952657857837
 20
27.49215791311335
 30
0.0
 10
-130.1741401260178
 20
53.9269813375987
 30
0.0
 10
-117.153283306192
 20
78.28549430083945
 30
0.0
 10
-99.63153130265345
 20
99.63386712688043
 30
0.0
 10
-78.28174474225763
 20
117.1562208932944
 30
0.0
 10
-53.92188462298328
 20
130.1759740620686
 30
0.0
 10
-27.48930190778628
 20
138.1955990442501
 30
0.0
 10
0.0001085325284294
 20
140.9019349485069
 30
0.0
 10
27.4921579507527
 20
138.1952654239892
 30
0.0
 10
53.92698131441102
 20
130.174140348913
 30
0.0
 10
78.28549431512421
 20
117.1532831688992
 30
0.0
 10
99.63394752379191
 20
99.631606157544
 30
0.0
 10
117.1558984336098
 20
78.28154887639255
 30
0.0
 10
130.1764166945277
 20
53.92214983624064
 30
0.0
 10
138.1952207402082
 20
27.4890020842378
 30
0.0
 10
139.9993145385724
 20
9.163944759148961
 30
0.0
 10
140.0000000000009
 20
0.0000000000005116
 30
0.0
  0
SPLINE
  5
14B
330
1F
100
AcDbEntity
  8
Miura_Table_9553-01_2D
100
AcDbSpline
210
0.0
220
0.0
230
1.0
 70
    24
 71
     2
 72
     6
 73
     3
 74
     0
 42
0.0000000001
 43
0.0000000001
 40
0.0
 40
0.0
 40
0.0
 40
42.41328163187513
 40
42.41328163187513
 40
42.41328163187513
 10
-308.1909604399316
 20
-148.9165081031656
 30
0.0
 10
-289.8254707643977
 20
-138.3131876951969
 30
0.0
 10
-271.4599810888637
 20
-127.7098672872281
 30
0.0
  0
SPLINE
  5
14C
330
1F
100
AcDbEntity
  8
Miura_Table_9553-01_2D
100
AcDbSpline
210
0.0
220
0.0
230
1.0
 70
    24
 71
     2
 72
     6
 73
     3
 74
     0
 42
0.0000000001
 43
0.0000000001
 40
161.2204025091209
 40
161.2204025091209
 40
161.2204025091209
 40
203.633708102275
 40
203.633708102275
 40
203.633708102275
 10
-246.3299591780525
 20
-171.2362941095558
 30
0.0
 10
-264.6954592291245
 20
-181.8396205078443
 30
0.0
 10
-283.0609592801966
 20
-192.4429469061328
 30
0.0
  0
SPLINE
  5
14D
330
1F
100
AcDbEntity
  8
Miura_Table_9553-01_2D
100
AcDbSpline
210
0.0
220
0.0
230
1.0
 70
    24
 71
     2
 72
     6
 73
     3
 74
     0
 42
0.0000000001
 43
0.0000000001
 40
0.0
 40
0.0
 40
0.0
 40
0.0064177164832391
 40
0.0064177164832391
 40
0.0064177164832391
 10
-308.1965179244953
 20
-148.9197180622958
 30
0.0
 10
-308.1937282849212
 20
-148.9181322873239
 30
0.0
 10
-308.1909386453471
 20
-148.916546512352
 30
0.0
  0
SPLINE
  5
14E
330
1F
100
AcDbEntity
  8
Miura_Table_9553-01_2D
100
AcDbSpline
210
0.0
220
0.0
230
1.0
 70
     8
 71
     3
 72
    21
 73
    17
 74
     0
 42
0.0000000001
 43
0.0000000001
 40
0.0
 40
0.0
 40
0.0
 40
0.0
 40
0.6474029094494482
 40
1.239961029460378
 40
2.476453098401701
 40
4.946873970821113
 40
9.81187462871941
 40
14.60310952278433
 40
19.26181656972226
 40
23.71952366727875
 40
28.04749662437723
 40
30.15633428733683
 40
32.3420849037702
 40
34.43000439321883
 40
35.4472788498954
 40
36.53847946972824
 40
36.53847946972824
 40
36.53847946972824
 40
36.53847946972824
 10
-314.0970039354188
 20
-181.3382162739484
 30
0.0
 10
-314.2041697051127
 20
-181.1509099550525
 30
0.0
 10
-314.4081705238486
 20
-180.7914071651861
 30
0.0
 10
-314.7974749608175
 20
-180.0634298001096
 30
0.0
 10
-315.4351875735201
 20
-178.7796580056423
 30
0.0
 10
-316.5442846490805
 20
-176.1436268969246
 30
0.0
 10
-317.6337947178627
 20
-172.2359841849917
 30
0.0
 10
-318.1103777557264
 20
-167.4693519956798
 30
0.0
 10
-317.7210600642156
 20
-162.8290446808474
 30
0.0
 10
-316.4941912444083
 20
-158.4962010702784
 30
0.0
 10
-314.804698410624
 20
-155.2583791980574
 30
0.0
 10
-313.0728028644198
 20
-152.9587373685085
 30
0.0
 10
-311.6100095530182
 20
-151.409024795902
 30
0.0
 10
-310.253720438639
 20
-150.2771991208055
 30
0.0
 10
-309.1102514725262
 20
-149.4704501020484
 30
0.0
 10
-308.5089496171577
 20
-149.1058573060992
 30
0.0
 10
-308.1965179244962
 20
-148.9197180622961
 30
0.0
  0
SPLINE
  5
14F
330
1F
100
AcDbEntity
  8
Miura_Table_9553-01_2D
100
AcDbSpline
210
0.0
220
0.0
230
1.0
 70
    24
 71
     2
 72
     6
 73
     3
 74
     0
 42
0.0000000001
 43
0.0000000001
 40
0.0
 40
0.0
 40
0.0
 40
0.0049999976354267
 40
0.0049999976354267
 40
0.0049999976354267
 10
-314.0945029797848
 20
-181.3425458463605
 30
0.0
 10
-314.0957534576019
 20
-181.3403810601545
 30
0.0
 10
-314.0970039354188
 20
-181.3382162739484
 30
0.0
  0
SPLINE
  5
150
330
1F
100
AcDbEntity
  8
Miura_Table_9553-01_2D
100
AcDbSpline
210
0.0
220
0.0
230
1.0
 70
     8
 71
     3
 72
    21
 73
    17
 74
     0
 42
0.0000000001
 43
0.0000000001
 40
0.0
 40
0.0
 40
0.0
 40
0.0
 40
1.091200619832687
 40
2.108475076510281
 40
4.196394565958211
 40
6.382145182392561
 40
8.490982845351998
 40
12.81895580244923
 40
17.27666290000628
 40
21.9353699469448
 40
26.72660484100899
 40
31.59160549890699
 40
34.06202637132714
 40
35.29851844026844
 40
35.89107656027871
 40
36.5384794697291
 40
36.5384794697291
 40
36.5384794697291
 40
36.5384794697291
 10
-283.0665179286125
 20
-192.4461548493709
 30
0.0
 10
-283.3839425138713
 20
-192.6236441949457
 30
0.0
 10
-284.0003193883867
 20
-192.9621317346286
 30
0.0
 10
-285.2708451800209
 20
-193.5489242134121
 30
0.0
 10
-286.9288486703291
 20
-194.1577223685699
 30
0.0
 10
-289.0028194346887
 20
-194.6496221063921
 30
0.0
 10
-291.8599002427345
 20
-194.9996295396973
 30
0.0
 10
-295.5089099694305
 20
-194.8439557456604
 30
0.0
 10
-299.8746461100136
 20
-193.7399671477191
 30
0.0
 10
-304.087874156935
 20
-191.7570138312738
 30
0.0
 10
-307.9775126510622
 20
-188.9608003372859
 30
0.0
 10
-310.8171127291389
 20
-186.0636990912938
 30
0.0
 10
-312.5451557124744
 20
-183.7849328132809
 30
0.0
 10
-313.3383929019992
 20
-182.5910057862806
 30
0.0
 10
-313.7740315529591
 20
-181.8897561516275
 30
0.0
 10
-313.9833774970575
 20
-181.5333396044964
 30
0.0
 10
-314.0920039379062
 20
-181.346876523679
 30
0.0
  0
SPLINE
  5
151
330
1F
100
AcDbEntity
  8
Miura_Table_9553-01_2D
100
AcDbSpline
210
0.0
220
0.0
230
1.0
 70
    24
 71
     2
 72
     6
 73
     3
 74
     0
 42
0.0000000001
 43
0.0000000001
 40
0.0
 40
0.0
 40
0.0
 40
0.006417716462647
 40
0.006417716462647
 40
0.006417716462647
 10
-283.0609816462356
 20
-192.4429088268761
 30
0.0
 10
-283.0637497874241
 20
-192.4445318381235
 30
0.0
 10
-283.0665179286125
 20
-192.4461548493709
 30
0.0
  0
SPLINE
  5
152
330
1F
100
AcDbEntity
  8
Miura_Table_9553-01_2D
100
AcDbSpline
210
0.0
220
0.0
230
1.0
 70
    24
 71
     2
 72
     6
 73
     3
 74
     0
 42
0.0000000001
 43
0.0000000001
 40
0.0
 40
0.0
 40
0.0
 40
0.0049689727684098
 40
0.0049689727684098
 40
0.0049689727684098
 10
-314.0920039379062
 20
-181.3468765236793
 30
0.0
 10
-314.0932457055978
 20
-181.3447246208951
 30
0.0
 10
-314.0944874732895
 20
-181.3425727181109
 30
0.0
  0
SPLINE
  5
153
330
1F
100
AcDbEntity
  8
Miura_Table_9553-01_2D
100
AcDbSpline
210
0.0
220
0.0
230
1.0
 70
     8
 71
     3
 72
    16
 73
    12
 74
     0
 42
0.0000000001
 43
0.0000000001
 40
0.0
 40
0.0
 40
0.0
 40
0.0
 40
1.953155402088666
 40
3.893592821351789
 40
7.847355141483859
 40
11.9104143159183
 40
16.08262218382957
 40
20.36384898894194
 40
24.75401732875309
 40
29.18049074721597
 40
33.71426896077073
 40
33.71426896077073
 40
33.71426896077073
 40
33.71426896077073
 10
-286.3087230316596
 20
-193.9142958386878
 30
0.0
 10
-286.9156267178905
 20
-194.1499454869296
 30
0.0
 10
-288.1494567485015
 20
-194.5580772387653
 30
0.0
 10
-290.707864262632
 20
-195.1196734491411
 30
0.0
 10
-294.0368118980405
 20
-195.3315484494746
 30
0.0
 10
-298.0829420215314
 20
-194.7969136693844
 30
0.0
 10
-302.0646242760886
 20
-193.495325964117
 30
0.0
 10
-305.8547574636132
 20
-191.4715439241441
 30
0.0
 10
-309.3255825422948
 20
-188.7993624809075
 30
0.0
 10
-312.3882665450737
 20
-185.5522113885335
 30
0.0
 10
-314.0824246693492
 20
-183.0815440863484
 30
0.0
 10
-314.8380452392239
 20
-181.7726981557096
 30
0.0
  0
SPLINE
  5
154
330
1F
100
AcDbEntity
  8
Miura_Table_9553-01_2D
100
AcDbSpline
210
0.0
220
0.0
230
1.0
 70
     8
 71
     3
 72
    16
 73
    12
 74
     0
 42
0.0000000001
 43
0.0000000001
 40
0.0
 40
0.0
 40
0.0
 40
0.0
 40
4.517138909949214
 40
8.979902653169327
 40
13.35193316290711
 40
17.61498633655982
 40
21.78720834057657
 40
25.85028218879279
 40
29.82218011666223
 40
31.76261295261852
 40
33.71577125458879
 40
33.71577125458879
 40
33.71577125458879
 40
33.71577125458879
 10
-314.8380452708189
 20
-181.7726981822548
 30
0.0
 10
-315.5909318036875
 20
-180.4687038491249
 30
0.0
 10
-316.8873942079845
 20
-177.7608058041754
 30
0.0
 10
-318.1683647831887
 20
-173.4841738243882
 30
0.0
 10
-318.7455854827677
 20
-169.1421649931907
 30
0.0
 10
-318.6051075665664
 20
-164.8601490892594
 30
0.0
 10
-317.7458513318606
 20
-160.7664089068302
 30
0.0
 10
-316.1866983587033
 20
-156.9880862217554
 30
0.0
 10
-314.3366275051685
 20
-154.2050377578926
 30
0.0
 10
-312.5669574980084
 20
-152.2657042355859
 30
0.0
 10
-311.5966152486717
 20
-151.4012487402476
 30
0.0
 10
-311.0890698787216
 20
-150.9934813211494
 30
0.0
  0
SPLINE
  5
155
330
1F
100
AcDbEntity
  8
Miura_Table_9553-01_2D
 62
     9
100
AcDbSpline
210
0.0
220
0.0
230
1.0
 70
    24
 71
     2
 72
     6
 73
     3
 74
     0
 42
0.0000000001
 43
0.0000000001
 40
42.41419722074819
 40
42.41419722074819
 40
42.41419722074819
 40
203.6338520885392
 40
203.6338520885392
 40
203.6338520885392
 10
246.3291870058998
 20
-171.2358482957548
 30
0.0
 10
176.5190286534665
 20
-130.9309345788069
 30
0.0
 10
106.7088703010331
 20
-90.62602086185895
 30
0.0
  0
SPLINE
  5
156
330
1F
100
AcDbEntity
  8
Miura_Table_9553-01_2D
 62
     9
100
AcDbSpline
210
0.0
220
0.0
230
1.0
 70
    24
 71
     2
 72
     6
 73
     3
 74
     0
 42
0.0000000001
 43
0.0000000001
 40
0.0
 40
0.0
 40
0.0
 40
161.2194600674175
 40
161.2194600674175
 40
161.2194600674175
 10
131.838982138609
 20
-47.09964595877372
 30
0.0
 10
201.6490561400064
 20
-87.404510975628
 30
0.0
 10
271.4591301414037
 20
-127.7093759924823
 30
0.0
  0
SPLINE
  5
157
330
1F
100
AcDbEntity
  8
Miura_Table_9553-01_2D
 62
     9
100
AcDbSpline
210
0.0
220
0.0
230
1.0
 70
    24
 71
     2
 72
     6
 73
     3
 74
     0
 42
0.0000000001
 43
0.0000000001
 40
42.41328163187513
 40
42.41328163187513
 40
42.41328163187513
 40
203.633334284065
 40
203.633334284065
 40
203.633334284065
 10
-271.4599810888637
 20
-127.7098672872281
 30
0.0
 10
-201.6496504907331
 20
-87.40485412418081
 30
0.0
 10
-131.8393198926024
 20
-47.09984096113351
 30
0.0
  0
SPLINE
  5
158
330
1F
100
AcDbEntity
  8
Miura_Table_9553-01_2D
 62
     9
100
AcDbSpline
210
0.0
220
0.0
230
1.0
 70
    24
 71
     2
 72
     6
 73
     3
 74
     0
 42
0.0000000001
 43
0.0000000001
 40
42.41402934839254
 40
42.41402934839254
 40
42.41402934839254
 40
203.6333458706113
 40
203.6333458706113
 40
203.6333458706113
 10
25.13000115975319
 20
298.9454256609354
 30
0.0
 10
25.13000115975319
 20
218.335767399826
 30
0.0
 10
25.13000115975319
 20
137.7261091387166
 30
0.0
  0
SPLINE
  5
159
330
1F
100
AcDbEntity
  8
Miura_Table_9553-01_2D
 62
     9
100
AcDbSpline
210
0.0
220
0.0
230
1.0
 70
    24
 71
     2
 72
     6
 73
     3
 74
     0
 42
0.0000000001
 43
0.0000000001
 40
0.0
 40
0.0
 40
0.0
 40
161.2195470941747
 40
161.2195470941747
 40
161.2195470941747
 10
-25.13000115975137
 20
137.7259695286505
 30
0.0
 10
-25.13000115975174
 20
218.3357430757379
 30
0.0
 10
-25.13000115975209
 20
298.9455166228252
 30
0.0
  0
SPLINE
  5
15A
330
1F
100
AcDbEntity
  8
Miura_Table_9553-01_2D
 62
     9
100
AcDbSpline
210
0.0
220
0.0
230
1.0
 70
    24
 71
     2
 72
     6
 73
     3
 74
     0
 42
0.0000000001
 43
0.0000000001
 40
0.0
 40
0.0
 40
0.0
 40
161.2204025091209
 40
161.2204025091209
 40
161.2204025091209
 10
-106.7089949968013
 20
-90.62609285499515
 30
0.0
 10
-176.5194770874269
 20
-130.9311934822755
 30
0.0
 10
-246.3299591780525
 20
-171.2362941095558
 30
0.0
  0
SPLINE
  5
15B
330
1F
100
AcDbEntity
  8
Miura_Table_9553-01_2D
100
AcDbSpline
210
0.0
220
0.0
230
1.0
 70
    24
 71
     2
 72
     6
 73
     3
 74
     0
 42
0.0000000001
 43
0.0000000001
 40
0.0
 40
0.0
 40
0.0
 40
294.396186561671
 40
294.396186561671
 40
294.396186561671
 10
1322.071713934373
 20
1573.847626614256
 30
-0.000000000000134
 10
1174.873620653538
 20
1573.847626614256
 30
-0.000000000000134
 10
1027.675527372702
 20
1573.847626614256
 30
-0.000000000000134
  0
SPLINE
  5
15C
330
1F
100
AcDbEntity
  8
Miura_Table_9553-01_2D
100
AcDbSpline
210
0.0
220
0.0
230
1.0
 70
    24
 71
     2
 72
     6
 73
     3
 74
     0
 42
0.0000000001
 43
0.0000000001
 40
0.0
 40
0.0
 40
0.0
 40
294.395757265368
 40
294.395757265368
 40
294.395757265368
 10
1027.675527372702
 20
1573.847626614256
 30
-0.000000000000134
 10
880.4776487400181
 20
1573.847626614256
 30
-0.000000000000134
 10
733.279770107334
 20
1573.847626614256
 30
-0.000000000000134
  0
SPLINE
  5
15D
330
1F
100
AcDbEntity
  8
Miura_Table_9553-01_2D
100
AcDbSpline
210
0.0
220
0.0
230
1.0
 70
    24
 71
     2
 72
     6
 73
     3
 74
     0
 42
0.0000000001
 43
0.0000000001
 40
0.0
 40
0.0
 40
0.0
 40
268.6965254678749
 40
268.6965254678749
 40
268.6965254678749
 10
1027.675634696778
 20
1592.537052452408
 30
-0.000000000000134
 10
1162.023900280724
 20
1592.537052452407
 30
-0.000000000000134
 10
1296.37216586467
 20
1592.537052452407
 30
-0.000000000000134
  0
SPLINE
  5
15E
330
1F
100
AcDbEntity
  8
Miura_Table_9553-01_2D
100
AcDbSpline
210
0.0
220
0.0
230
1.0
 70
     8
 71
     3
 72
    16
 73
    12
 74
     0
 42
0.0000000001
 43
0.0000000001
 40
0.0
 40
0.0
 40
0.0
 40
0.0
 40
4.392532133180933
 40
9.103232288622523
 40
14.02234326407727
 40
19.04528694088155
 40
24.05681992867819
 40
28.92208547605299
 40
33.53958554338433
 40
35.72768669358445
 40
37.82776312511874
 40
37.82776312511874
 40
37.82776312511874
 40
37.82776312511874
 10
1296.37216586467
 20
1592.537052452407
 30
-0.000000000000134
 10
1297.836690148314
 20
1592.536725229231
 30
-0.000000000000134
 10
1300.868137275922
 20
1592.267998587064
 30
-0.000000000000134
 10
1305.42644097568
 20
1591.186059417394
 30
-0.000000000000134
 10
1310.003042432267
 20
1589.453648145451
 30
-0.000000000000134
 10
1314.426318377515
 20
1587.136761803535
 30
-0.000000000000134
 10
1318.529609436358
 20
1584.322695160064
 30
-0.000000000000134
 10
1322.157296488303
 20
1581.11722744385
 30
-0.000000000000134
 10
1324.712534023379
 20
1578.170828838201
 30
-0.000000000000134
 10
1326.387516869808
 20
1575.716507160188
 30
-0.000000000000134
 10
1327.09279771625
 20
1574.471973971539
 30
-0.000000000000134
 10
1327.409796168975
 20
1573.847727016361
 30
-0.000000000000134
  0
SPLINE
  5
15F
330
1F
100
AcDbEntity
  8
Miura_Table_9553-01_2D
100
AcDbSpline
210
0.0
220
0.0
230
1.0
 70
    12
 71
     2
 72
     8
 73
     5
 74
     0
 42
0.0000000001
 43
0.0000000001
 40
0.0
 40
0.0
 40
0.0
 40
2.319453819213341
 40
2.319453819213341
 40
4.638907638426683
 40
4.638907638426683
 40
4.638907638426683
 10
1327.409796168975
 20
1573.847727016361
 30
-0.000000000000134
 41
1.0
 10
1328.010938763682
 20
1572.723718762316
 30
-0.000000000000134
 41
0.8700788288309112
 10
1327.355669678314
 20
1571.630385721741
 30
-0.000000000000134
 41
1.0
 10
1326.700400592948
 20
1570.537052681166
 30
-0.000000000000134
 41
0.8700788288309112
 10
1325.425741928108
 20
1570.537052421934
 30
-0.000000000000134
 41
1.0
  0
SPLINE
  5
160
330
1F
100
AcDbEntity
  8
Miura_Table_9553-01_2D
100
AcDbSpline
210
0.0
220
0.0
230
1.0
 70
    24
 71
     2
 72
     6
 73
     3
 74
     0
 42
0.0000000001
 43
0.0000000001
 40
0.0
 40
0.0
 40
0.0
 40
297.7499999072541
 40
297.7499999072541
 40
297.7499999072541
 10
1325.425741928108
 20
1570.537052421934
 30
-0.000000000000134
 10
1176.550741974481
 20
1570.537052421933
 30
-0.000000000000134
 10
1027.675742020853
 20
1570.537052421933
 30
-0.000000000000134
  0
SPLINE
  5
161
330
1F
100
AcDbEntity
  8
Miura_Table_9553-01_2D
100
AcDbSpline
210
0.0
220
0.0
230
1.0
 70
    24
 71
     2
 72
     6
 73
     3
 74
     0
 42
0.0000000001
 43
0.0000000001
 40
0.0
 40
0.0
 40
0.0
 40
297.7499999073891
 40
297.7499999073891
 40
297.7499999073891
 10
1027.675742020853
 20
1570.537052421933
 30
-0.000000000000134
 10
878.8007420671588
 20
1570.537052421933
 30
-0.000000000000134
 10
729.9257421134643
 20
1570.537052421933
 30
-0.000000000000134
  0
SPLINE
  5
162
330
1F
100
AcDbEntity
  8
Miura_Table_9553-01_2D
100
AcDbSpline
210
0.0
220
0.0
230
1.0
 70
    12
 71
     2
 72
     8
 73
     5
 74
     0
 42
0.0000000001
 43
0.0000000001
 40
0.0
 40
0.0
 40
0.0
 40
2.31945423591472
 40
2.31945423591472
 40
4.638908471829438
 40
4.638908471829438
 40
4.638908471829438
 10
729.9257421134643
 20
1570.537052421933
 30
-0.000000000000134
 41
1.0
 10
728.6510830986729
 20
1570.537052063436
 30
-0.000000000000134
 41
0.8700787093849605
 10
727.9958138334372
 20
1571.6303854042
 30
-0.000000000000134
 41
1.0
 10
727.3405445682016
 20
1572.723718744964
 30
-0.000000000000134
 41
0.8700787093849605
 10
727.9416878727322
 20
1573.847727016361
 30
-0.000000000000134
 41
1.0
  0
SPLINE
  5
163
330
1F
100
AcDbEntity
  8
Miura_Table_9553-01_2D
100
AcDbSpline
210
0.0
220
0.0
230
1.0
 70
     8
 71
     3
 72
    16
 73
    12
 74
     0
 42
0.0000000001
 43
0.0000000001
 40
0.0
 40
0.0
 40
0.0
 40
0.0
 40
2.10001170666425
 40
4.288177581580105
 40
8.905661522679123
 40
13.77094318508053
 40
18.78247617287734
 40
23.81811150027521
 40
28.73719774104259
 40
33.43523100152121
 40
37.82776313447252
 40
37.82776313447252
 40
37.82776313447252
 40
37.82776313447252
 10
727.9416878727322
 20
1573.847727016361
 30
-0.000000000000134
 10
728.258673510642
 20
1574.471954858403
 30
-0.000000000000134
 10
728.9639611357237
 20
1575.71648863836
 30
-0.000000000000134
 10
730.6389232694802
 20
1578.170808356741
 30
-0.000000000000134
 10
733.1942009771609
 20
1581.117223803491
 30
-0.000000000000134
 10
736.8218679844749
 20
1584.322689361314
 30
-0.000000000000134
 10
740.9286619031392
 20
1587.139161505834
 30
-0.000000000000134
 10
745.3560680101559
 20
1589.457363143149
 30
-0.000000000000134
 10
749.9332270436316
 20
1591.188341889698
 30
-0.000000000000134
 10
754.4875678888492
 20
1592.268373340402
 30
-0.000000000000134
 10
757.5147927573095
 20
1592.536724675087
 30
-0.000000000000134
 10
758.9793181770375
 20
1592.537052452407
 30
-0.000000000000134
  0
SPLINE
  5
164
330
1F
100
AcDbEntity
  8
Miura_Table_9553-01_2D
100
AcDbSpline
210
0.0
220
0.0
230
1.0
 70
    28
 71
     2
 72
     6
 73
     3
 74
     0
 42
0.0000000001
 43
0.0000000001
 40
4.71238898038469
 40
4.71238898038469
 40
4.71238898038469
 40
6.283185307179585
 40
6.283185307179585
 40
6.283185307179585
 10
758.9793181770375
 20
1592.537052452407
 30
-0.000000000000134
 41
0.9999998345539975
 10
758.9793238762522
 20
1592.537052452408
 30
-0.000000000000134
 41
0.7071068639095721
 10
1027.675634696778
 20
1592.537052452408
 30
-0.000000000000134
 41
1.0
  0
ENDSEC
  0
SECTION
  2
OBJECTS
  0
DICTIONARY
  5
C
330
0
100
AcDbDictionary
281
     1
  3
ACAD_COLOR
350
16D
  3
ACAD_GROUP
350
D
  3
ACAD_LAYOUT
350
1A
  3
ACAD_MATERIAL
350
169
  3
ACAD_MLEADERSTYLE
350
166
  3
ACAD_MLINESTYLE
350
17
  3
ACAD_PLOTSETTINGS
350
19
  3
ACAD_PLOTSTYLENAME
350
E
  3
ACAD_TABLESTYLE
350
165
  3
ACAD_VISUALSTYLE
350
2A
  3
AcDbVariableDictionary
350
171
  3
DWGPROPS
350
177
  0
DICTIONARY
  5
16D
102
{ACAD_REACTORS
330
C
102
}
330
C
100
AcDbDictionary
281
     1
  0
DICTIONARY
  5
D
102
{ACAD_REACTORS
330
C
102
}
330
C
100
AcDbDictionary
281
     1
  0
DICTIONARY
  5
1A
102
{ACAD_REACTORS
330
C
102
}
330
C
100
AcDbDictionary
281
     1
  3
Layout1
350
1E
  3
Layout2
350
26
  3
Model
350
22
  0
DICTIONARY
  5
169
102
{ACAD_REACTORS
330
C
102
}
330
C
100
AcDbDictionary
281
     1
  3
ByBlock
350
16B
  3
ByLayer
350
16A
  3
Global
350
16C
  0
DICTIONARY
  5
166
102
{ACAD_REACTORS
330
C
102
}
330
C
100
AcDbDictionary
281
     1
  0
DICTIONARY
  5
17
102
{ACAD_REACTORS
330
C
102
}
330
C
100
AcDbDictionary
281
     1
  3
Standard
350
18
  0
DICTIONARY
  5
19
102
{ACAD_REACTORS
330
C
102
}
330
C
100
AcDbDictionary
281
     1
  0
ACDBDICTIONARYWDFLT
  5
E
102
{ACAD_REACTORS
330
C
102
}
330
C
100
AcDbDictionary
281
     1
  3
Normal
350
F
100
AcDbDictionaryWithDefault
340
F
  0
DICTIONARY
  5
165
102
{ACAD_REACTORS
330
C
102
}
330
C
100
AcDbDictionary
281
     1
  3
Standard
350
16E
  0
DICTIONARY
  5
2A
102
{ACAD_REACTORS
330
C
102
}
330
C
100
AcDbDictionary
281
     1
  3
2dWireframe
350
2F
  3
3D Hidden
350
31
  3
3dWireframe
350
30
  3
Basic
350
32
  3
Brighten
350
36
  3
ColorChange
350
3A
  3
Conceptual
350
34
  3
Dim
350
35
  3
Facepattern
350
39
  3
Flat
350
2B
  3
FlatWithEdges
350
2C
  3
Gouraud
350
2D
  3
GouraudWithEdges
350
2E
  3
Linepattern
350
38
  3
Realistic
350
33
  3
Thicken
350
37
  0
DICTIONARY
  5
171
102
{ACAD_REACTORS
330
C
102
}
330
C
100
AcDbDictionary
281
     1
  3
CTABLESTYLE
350
172
  3
DIMASSOC
350
176
  3
HIDETEXT
350
175
  3
INDEXCTL
350
174
  3
SORTENTS
350
173
  0
XRECORD
  5
177
102
{ACAD_REACTORS
330
C
102
}
330
C
100
AcDbXrecord
280
     1
  1
DWGPROPS COOKIE
  2

  3

  4

  6

  7

  8
SCL2
  9

300
=
301
=
302
=
303
=
304
=
305
=
306
=
307
=
308
=
309
=
 40
0.0001381944444444
 41
2457213.699606922
 42
2457213.701572859
  1

 90
        0
  0
LAYOUT
  5
1E
102
{ACAD_XDICTIONARY
360
178
102
}
102
{ACAD_REACTORS
330
1A
102
}
330
1A
100
AcDbPlotSettings
  1

  2
none_device
  4

  6

 40
0.0
 41
0.0
 42
0.0
 43
0.0
 44
0.0
 45
0.0
 46
0.0
 47
0.0
 48
0.0
 49
0.0
140
0.0
141
0.0
142
1.0
143
1.0
 70
   688
 72
     0
 73
     0
 74
     5
  7

 75
    16
147
1.0
148
0.0
149
0.0
100
AcDbLayout
  1
Layout1
 70
     1
 71
     1
 10
0.0
 20
0.0
 11
12.0
 21
9.0
 12
0.0
 22
0.0
 32
0.0
 14
1.000000000000000E+20
 24
1.000000000000000E+20
 34
1.000000000000000E+20
 15
-1.000000000000000E+20
 25
-1.000000000000000E+20
 35
-1.000000000000000E+20
146
0.0
 13
0.0
 23
0.0
 33
0.0
 16
1.0
 26
0.0
 36
0.0
 17
0.0
 27
1.0
 37
0.0
 76
     0
330
1B
  0
LAYOUT
  5
26
102
{ACAD_XDICTIONARY
360
17C
102
}
102
{ACAD_REACTORS
330
1A
102
}
330
1A
100
AcDbPlotSettings
  1

  2
none_device
  4

  6

 40
0.0
 41
0.0
 42
0.0
 43
0.0
 44
0.0
 45
0.0
 46
0.0
 47
0.0
 48
0.0
 49
0.0
140
0.0
141
0.0
142
1.0
143
1.0
 70
   688
 72
     0
 73
     0
 74
     5
  7

 75
    16
147
1.0
148
0.0
149
0.0
100
AcDbLayout
  1
Layout2
 70
     1
 71
     2
 10
0.0
 20
0.0
 11
0.0
 21
0.0
 12
0.0
 22
0.0
 32
0.0
 14
0.0
 24
0.0
 34
0.0
 15
0.0
 25
0.0
 35
0.0
146
0.0
 13
0.0
 23
0.0
 33
0.0
 16
1.0
 26
0.0
 36
0.0
 17
0.0
 27
1.0
 37
0.0
 76
     0
330
23
  0
LAYOUT
  5
22
102
{ACAD_XDICTIONARY
360
17A
102
}
102
{ACAD_REACTORS
330
1A
102
}
330
1A
100
AcDbPlotSettings
  1

  2
none_device
  4

  6

 40
0.0
 41
0.0
 42
0.0
 43
0.0
 44
0.0
 45
0.0
 46
0.0
 47
0.0
 48
0.0
 49
0.0
140
0.0
141
0.0
142
1.0
143
1.0
 70
  1712
 72
     0
 73
     0
 74
     0
  7

 75
     0
147
1.0
148
0.0
149
0.0
100
AcDbLayout
  1
Model
 70
     1
 71
     0
 10
0.0
 20
0.0
 11
12.0
 21
9.0
 12
0.0
 22
0.0
 32
0.0
 14
-318.6593727732978
 24
-300.0001478722642
 34
-0.000000000000134
 15
2324.460568580831
 25
1592.537052452408
 35
0.0
146
0.0
 13
0.0
 23
0.0
 33
0.0
 16
1.0
 26
0.0
 36
0.0
 17
0.0
 27
1.0
 37
0.0
 76
     0
330
1F
331
29
  0
MATERIAL
  5
16B
102
{ACAD_XDICTIONARY
360
180
102
}
102
{ACAD_REACTORS
330
169
102
}
330
169
100
AcDbMaterial
  1
ByBlock
  0
MATERIAL
  5
16A
102
{ACAD_XDICTIONARY
360
17E
102
}
102
{ACAD_REACTORS
330
169
102
}
330
169
100
AcDbMaterial
  1
ByLayer
  0
MATERIAL
  5
16C
102
{ACAD_XDICTIONARY
360
182
102
}
102
{ACAD_REACTORS
330
169
102
}
330
169
100
AcDbMaterial
  1
Global
  0
MLINESTYLE
  5
18
102
{ACAD_REACTORS
330
17
102
}
330
17
100
AcDbMlineStyle
  2
STANDARD
 70
     0
  3

 62
   256
 51
90.0
 52
90.0
 71
     2
 49
0.5
 62
   256
  6
BYLAYER
 49
-0.5
 62
   256
  6
BYLAYER
  0
ACDBPLACEHOLDER
  5
F
102
{ACAD_REACTORS
330
E
102
}
330
E
  0
TABLESTYLE
  5
16E
102
{ACAD_XDICTIONARY
360
184
102
}
102
{ACAD_REACTORS
330
165
102
}
330
165
100
AcDbTableStyle
  3
Standard
 70
     0
 71
     0
 40
0.06
 41
0.06
280
     0
281
     0
  7
Standard
140
0.18
170
     2
 62
     0
 63
     7
283
     0
274
    -2
284
     1
 64
     0
275
    -2
285
     1
 65
     0
276
    -2
286
     1
 66
     0
277
    -2
287
     1
 67
     0
278
    -2
288
     1
 68
     0
279
    -2
289
     1
 69
     0
  7
Standard
140
0.25
170
     5
 62
     0
 63
     7
283
     0
274
    -2
284
     1
 64
     0
275
    -2
285
     1
 65
     0
276
    -2
286
     1
 66
     0
277
    -2
287
     1
 67
     0
278
    -2
288
     1
 68
     0
279
    -2
289
     1
 69
     0
  7
Standard
140
0.18
170
     5
 62
     0
 63
     7
283
     0
274
    -2
284
     1
 64
     0
275
    -2
285
     1
 65
     0
276
    -2
286
     1
 66
     0
277
    -2
287
     1
 67
     0
278
    -2
288
     1
 68
     0
279
    -2
289
     1
 69
     0
  0
VISUALSTYLE
  5
2F
102
{ACAD_REACTORS
330
2A
102
}
330
2A
100
AcDbVisualStyle
  2
2dWireframe
 70
     4
 71
     0
 72
     2
 73
     0
 90
        0
 40
-0.6
 41
-30.0
 62
     5
 63
     7
 74
     1
 91
        4
 64
     7
 65
   257
 75
     1
175
     1
 42
1.0
 92
        0
 66
   257
 43
1.0
 76
     1
 77
     6
 78
     2
 67
     7
 79
     5
170
     0
171
     0
290
     0
174
     0
 93
        1
 44
0.0
173
     0
291
     0
 45
0.0
1001
ACAD
1000
AcDbSavedByObjectVersion
1070
     0
1000
AcDbSavedByObjectVersion
1070
     0
  0
VISUALSTYLE
  5
31
102
{ACAD_REACTORS
330
2A
102
}
330
2A
100
AcDbVisualStyle
  2
3D Hidden
 70
     6
 71
     1
 72
     2
 73
     2
 90
        0
 40
-0.6
 41
-30.0
 62
     5
 63
     7
 74
     2
 91
        2
 64
     7
 65
   257
 75
     2
175
     1
 42
40.0
 92
        0
 66
   257
 43
1.0
 76
     1
 77
     6
 78
     2
 67
     7
 79
     3
170
     0
171
     0
290
     0
174
     0
 93
        1
 44
0.0
173
     0
291
     0
 45
0.0
1001
ACAD
1000
AcDbSavedByObjectVersion
1070
     0
1000
AcDbSavedByObjectVersion
1070
     0
  0
VISUALSTYLE
  5
30
102
{ACAD_REACTORS
330
2A
102
}
330
2A
100
AcDbVisualStyle
  2
3dWireframe
 70
     5
 71
     0
 72
     2
 73
     0
 90
        0
 40
-0.6
 41
-30.0
 62
     5
 63
     7
 74
     1
 91
        4
 64
     7
 65
   257
 75
     1
175
     1
 42
1.0
 92
        0
 66
   257
 43
1.0
 76
     1
 77
     6
 78
     2
 67
     7
 79
     5
170
     0
171
     0
290
     0
174
     0
 93
        1
 44
0.0
173
     0
291
     0
 45
0.0
1001
ACAD
1000
AcDbSavedByObjectVersion
1070
     0
1000
AcDbSavedByObjectVersion
1070
     0
  0
VISUALSTYLE
  5
32
102
{ACAD_REACTORS
330
2A
102
}
330
2A
100
AcDbVisualStyle
  2
Basic
 70
     7
 71
     1
 72
     0
 73
     1
 90
        0
 40
-0.6
 41
-30.0
 62
     5
 63
     7
 74
     0
 91
        4
 64
     7
 65
   257
 75
     1
175
     1
 42
1.0
 92
        8
 66
     7
 43
1.0
 76
     1
 77
     6
 78
     2
 67
     7
 79
     5
170
     0
171
     0
290
     0
174
     0
 93
        1
 44
0.0
173
     0
291
     1
 45
0.0
1001
ACAD
1000
AcDbSavedByObjectVersion
1070
     0
1000
AcDbSavedByObjectVersion
1070
     0
  0
VISUALSTYLE
  5
36
102
{ACAD_REACTORS
330
2A
102
}
330
2A
100
AcDbVisualStyle
  2
Brighten
 70
    12
 71
     2
 72
     2
 73
     0
 90
        0
 40
-0.6
 41
-30.0
 62
     5
 63
     7
 74
     1
 91
        4
 64
     7
 65
   257
 75
     1
175
     1
 42
1.0
 92
        8
 66
     7
 43
1.0
 76
     1
 77
     6
 78
     2
 67
     7
 79
     5
170
     0
171
     0
290
     0
174
     0
 93
        1
 44
50.0
173
     0
291
     1
 45
0.0
1001
ACAD
1000
AcDbSavedByObjectVersion
1070
     0
1000
AcDbSavedByObjectVersion
1070
     0
  0
VISUALSTYLE
  5
3A
102
{ACAD_REACTORS
330
2A
102
}
330
2A
100
AcDbVisualStyle
  2
ColorChange
 70
    16
 71
     2
 72
     2
 73
     3
 90
        0
 40
-0.6
 41
-30.0
 62
     5
 63
     8
 74
     1
 91
        4
 64
     7
 65
   257
 75
     1
175
     1
 42
1.0
 92
        8
 66
     8
 43
1.0
 76
     1
 77
     6
 78
     2
 67
     7
 79
     5
170
     0
171
     0
290
     0
174
     0
 93
        1
 44
0.0
173
     0
291
     1
 45
0.0
1001
ACAD
1000
AcDbSavedByObjectVersion
1070
     0
1000
AcDbSavedByObjectVersion
1070
     0
  0
VISUALSTYLE
  5
34
102
{ACAD_REACTORS
330
2A
102
}
330
2A
100
AcDbVisualStyle
  2
Conceptual
 70
     9
 71
     3
 72
     2
 73
     0
 90
        0
 40
-0.6
 41
-30.0
 62
     5
 63
     7
 74
     2
 91
        2
 64
     7
 65
   257
 75
     1
175
     1
 42
40.0
 92
        8
 66
     7
 43
1.0
 76
     1
 77
     6
 78
     2
 67
     7
 79
     3
170
     0
171
     0
290
     0
174
     0
 93
        1
 44
0.0
173
     0
291
     0
 45
0.0
1001
ACAD
1000
AcDbSavedByObjectVersion
1070
     0
1000
AcDbSavedByObjectVersion
1070
     0
  0
VISUALSTYLE
  5
35
102
{ACAD_REACTORS
330
2A
102
}
330
2A
100
AcDbVisualStyle
  2
Dim
 70
    11
 71
     2
 72
     2
 73
     0
 90
        0
 40
-0.6
 41
-30.0
 62
     5
 63
     7
 74
     1
 91
        4
 64
     7
 65
   257
 75
     1
175
     1
 42
1.0
 92
        8
 66
     7
 43
1.0
 76
     1
 77
     6
 78
     2
 67
     7
 79
     5
170
     0
171
     0
290
     0
174
     0
 93
        1
 44
-50.0
173
     0
291
     1
 45
0.0
1001
ACAD
1000
AcDbSavedByObjectVersion
1070
     0
1000
AcDbSavedByObjectVersion
1070
     0
  0
VISUALSTYLE
  5
39
102
{ACAD_REACTORS
330
2A
102
}
330
2A
100
AcDbVisualStyle
  2
Facepattern
 70
    15
 71
     2
 72
     2
 73
     0
 90
        0
 40
-0.6
 41
-30.0
 62
     5
 63
     7
 74
     1
 91
        4
 64
     7
 65
   257
 75
     1
175
     1
 42
1.0
 92
        8
 66
     7
 43
1.0
 76
     1
 77
     6
 78
     2
 67
     7
 79
     5
170
     0
171
     0
290
     0
174
     0
 93
        1
 44
0.0
173
     0
291
     1
 45
0.0
1001
ACAD
1000
AcDbSavedByObjectVersion
1070
     0
1000
AcDbSavedByObjectVersion
1070
     0
  0
VISUALSTYLE
  5
2B
102
{ACAD_REACTORS
330
2A
102
}
330
2A
100
AcDbVisualStyle
  2
Flat
 70
     0
 71
     2
 72
     1
 73
     1
 90
        2
 40
-0.6
 41
30.0
 62
     5
 63
     7
 74
     0
 91
        4
 64
     7
 65
   257
 75
     1
175
     1
 42
1.0
 92
        8
 66
     7
 43
1.0
 76
     1
 77
     6
 78
     2
 67
     7
 79
     5
170
     0
171
     0
290
     0
174
     0
 93
       13
 44
0.0
173
     0
291
     1
 45
0.0
1001
ACAD
1000
AcDbSavedByObjectVersion
1070
     0
1000
AcDbSavedByObjectVersion
1070
     0
  0
VISUALSTYLE
  5
2C
102
{ACAD_REACTORS
330
2A
102
}
330
2A
100
AcDbVisualStyle
  2
FlatWithEdges
 70
     1
 71
     2
 72
     1
 73
     1
 90
        2
 40
-0.6
 41
30.0
 62
     5
 63
     7
 74
     1
 91
        4
 64
     7
 65
   257
 75
     1
175
     1
 42
1.0
 92
        0
 66
   257
 43
1.0
 76
     1
 77
     6
 78
     2
 67
     7
 79
     5
170
     0
171
     0
290
     0
174
     0
 93
       13
 44
0.0
173
     0
291
     1
 45
0.0
1001
ACAD
1000
AcDbSavedByObjectVersion
1070
     0
1000
AcDbSavedByObjectVersion
1070
     0
  0
VISUALSTYLE
  5
2D
102
{ACAD_REACTORS
330
2A
102
}
330
2A
100
AcDbVisualStyle
  2
Gouraud
 70
     2
 71
     2
 72
     2
 73
     1
 90
        2
 40
-0.6
 41
30.0
 62
     5
 63
     7
 74
     0
 91
        4
 64
     7
 65
   257
 75
     1
175
     1
 42
1.0
 92
        0
 66
     7
 43
1.0
 76
     1
 77
     6
 78
     2
 67
     7
 79
     5
170
     0
171
     0
290
     0
174
     0
 93
       13
 44
0.0
173
     0
291
     1
 45
0.0
1001
ACAD
1000
AcDbSavedByObjectVersion
1070
     0
1000
AcDbSavedByObjectVersion
1070
     0
  0
VISUALSTYLE
  5
2E
102
{ACAD_REACTORS
330
2A
102
}
330
2A
100
AcDbVisualStyle
  2
GouraudWithEdges
 70
     3
 71
     2
 72
     2
 73
     1
 90
        2
 40
-0.6
 41
30.0
 62
     5
 63
     7
 74
     1
 91
        4
 64
     7
 65
   257
 75
     1
175
     1
 42
1.0
 92
        0
 66
   257
 43
1.0
 76
     1
 77
     6
 78
     2
 67
     7
 79
     5
170
     0
171
     0
290
     0
174
     0
 93
       13
 44
0.0
173
     0
291
     1
 45
0.0
1001
ACAD
1000
AcDbSavedByObjectVersion
1070
     0
1000
AcDbSavedByObjectVersion
1070
     0
  0
VISUALSTYLE
  5
38
102
{ACAD_REACTORS
330
2A
102
}
330
2A
100
AcDbVisualStyle
  2
Linepattern
 70
    14
 71
     2
 72
     2
 73
     0
 90
        0
 40
-0.6
 41
-30.0
 62
     5
 63
     7
 74
     1
 91
        4
 64
     7
 65
   257
 75
     7
175
     7
 42
1.0
 92
        8
 66
     7
 43
1.0
 76
     1
 77
     6
 78
     2
 67
     7
 79
     5
170
     0
171
     0
290
     0
174
     0
 93
        1
 44
0.0
173
     0
291
     1
 45
0.0
1001
ACAD
1000
AcDbSavedByObjectVersion
1070
     0
1000
AcDbSavedByObjectVersion
1070
     0
  0
VISUALSTYLE
  5
33
102
{ACAD_REACTORS
330
2A
102
}
330
2A
100
AcDbVisualStyle
  2
Realistic
 70
     8
 71
     2
 72
     2
 73
     0
 90
        0
 40
-0.6
 41
-30.0
 62
     5
 63
     7
 74
     1
 91
        0
 64
     7
 65
   257
 75
     1
175
     1
 42
1.0
 92
        8
 66
     8
 43
1.0
 76
     1
 77
     6
 78
     2
 67
     7
 79
     5
170
     0
171
     0
290
     0
174
     0
 93
       13
 44
0.0
173
     0
291
     0
 45
0.0
1001
ACAD
1000
AcDbSavedByObjectVersion
1070
     0
1000
AcDbSavedByObjectVersion
1070
     0
  0
VISUALSTYLE
  5
37
102
{ACAD_REACTORS
330
2A
102
}
330
2A
100
AcDbVisualStyle
  2
Thicken
 70
    13
 71
     2
 72
     2
 73
     0
 90
        0
 40
-0.6
 41
-30.0
 62
     5
 63
     7
 74
     1
 91
        4
 64
     7
 65
   257
 75
     1
175
     1
 42
1.0
 92
       12
 66
     7
 43
1.0
 76
     1
 77
     6
 78
     2
 67
     7
 79
     5
170
     0
171
     0
290
     0
174
     0
 93
        1
 44
0.0
173
     0
291
     1
 45
0.0
1001
ACAD
1000
AcDbSavedByObjectVersion
1070
     0
1000
AcDbSavedByObjectVersion
1070
     0
  0
DICTIONARYVAR
  5
172
102
{ACAD_REACTORS
330
171
102
}
330
171
100
DictionaryVariables
280
     0
  1
STANDARD
  0
DICTIONARYVAR
  5
176
102
{ACAD_REACTORS
330
171
102
}
330
171
100
DictionaryVariables
280
     0
  1
2
  0
DICTIONARYVAR
  5
175
102
{ACAD_REACTORS
330
171
102
}
330
171
100
DictionaryVariables
280
     0
  1
1
  0
DICTIONARYVAR
  5
174
102
{ACAD_REACTORS
330
171
102
}
330
171
100
DictionaryVariables
280
     0
  1
0
  0
DICTIONARYVAR
  5
173
102
{ACAD_REACTORS
330
171
102
}
330
171
100
DictionaryVariables
280
     0
  1
127
  0
DICTIONARY
  5
178
330
1E
100
AcDbDictionary
280
     1
281
     1
  3
ACAD_XREC_ROUNDTRIP
360
179
  0
DICTIONARY
  5
17C
330
26
100
AcDbDictionary
280
     1
281
     1
  3
ACAD_XREC_ROUNDTRIP
360
17D
  0
DICTIONARY
  5
17A
330
22
100
AcDbDictionary
280
     1
281
     1
  3
ACAD_XREC_ROUNDTRIP
360
17B
  0
DICTIONARY
  5
180
330
16B
100
AcDbDictionary
280
     1
281
     1
  3
ACAD_XREC_ROUNDTRIP
360
181
  0
DICTIONARY
  5
17E
330
16A
100
AcDbDictionary
280
     1
281
     1
  3
ACAD_XREC_ROUNDTRIP
360
17F
  0
DICTIONARY
  5
182
330
16C
100
AcDbDictionary
280
     1
281
     1
  3
ACAD_XREC_ROUNDTRIP
360
183
  0
DICTIONARY
  5
184
330
16E
100
AcDbDictionary
280
     1
281
     1
  3
ACAD_XREC_ROUNDTRIP
360
185
  0
XRECORD
  5
179
102
{ACAD_REACTORS
330
178
102
}
330
178
100
AcDbXrecord
280
     1
102
SHADEPLOT
 70
     0
102
SHADEPLOTRESLEVEL
 70
     2
102
SHADEPLOTCUSTOMDPI
 70
   300
  0
XRECORD
  5
17D
102
{ACAD_REACTORS
330
17C
102
}
330
17C
100
AcDbXrecord
280
     1
102
SHADEPLOT
 70
     0
102
SHADEPLOTRESLEVEL
 70
     2
102
SHADEPLOTCUSTOMDPI
 70
   300
  0
XRECORD
  5
17B
102
{ACAD_REACTORS
330
17A
102
}
330
17A
100
AcDbXrecord
280
     1
102
SHADEPLOT
 70
     0
102
SHADEPLOTRESLEVEL
 70
     2
102
SHADEPLOTCUSTOMDPI
 70
   300
  0
XRECORD
  5
181
102
{ACAD_REACTORS
330
180
102
}
330
180
100
AcDbXrecord
280
     1
102
MATERIAL
148
0.0
149
0.0
149
0.0
 93
        0
 94
       63
282
     0
 72
     1
 77
     1
171
     1
175
     1
179
     1
273
     0
  0
XRECORD
  5
17F
102
{ACAD_REACTORS
330
17E
102
}
330
17E
100
AcDbXrecord
280
     1
102
MATERIAL
148
0.0
149
0.0
149
0.0
 93
        0
 94
       63
282
     0
 72
     1
 77
     1
171
     1
175
     1
179
     1
273
     0
  0
XRECORD
  5
183
102
{ACAD_REACTORS
330
182
102
}
330
182
100
AcDbXrecord
280
     1
102
MATERIAL
148
0.0
149
0.0
149
0.0
 93
        0
 94
       63
282
     0
 72
     1
 77
     1
171
     1
175
     1
179
     1
273
     0
  0
XRECORD
  5
185
102
{ACAD_REACTORS
330
184
102
}
330
184
100
AcDbXrecord
280
     1
102
ACAD_ROUNDTRIP_PRE2007_TABLESTYLE
 90
      512
 91
        0
  1

 92
      512
 93
        0
  2

 94
      512
 95
        0
  3

  0
ENDSEC
  0
EOF
