  0
SECTION
  2
HEADER
  9
$ACADVER
  1
AC1018
  9
$ACADMAINTVER
 70
     0
  9
$DWGCODEPAGE
  3
ANSI_1252
  9
$INSBASE
 10
0.0
 20
0.0
 30
0.0
  9
$EXTMIN
 10
-350.0
 20
-350.0
 30
0.0
  9
$EXTMAX
 10
2355.802436807888
 20
1582.537243236149
 30
0.0
  9
$LIMMIN
 10
0.0
 20
0.0
  9
$LIMMAX
 10
12.0
 20
9.0
  9
$ORTHOMODE
 70
     0
  9
$REGENMODE
 70
     1
  9
$FILLMODE
 70
     1
  9
$QTEXTMODE
 70
     0
  9
$MIRRTEXT
 70
     1
  9
$LTSCALE
 40
1.0
  9
$ATTMODE
 70
     1
  9
$TEXTSIZE
 40
0.2
  9
$TRACEWID
 40
0.05
  9
$TEXTSTYLE
  7
Standard
  9
$CLAYER
  8
Miura_Table_9590-01_2D
  9
$CELTYPE
  6
ByLayer
  9
$CECOLOR
 62
   256
  9
$CELTSCALE
 40
1.0
  9
$DISPSILH
 70
     0
  9
$DIMSCALE
 40
1.0
  9
$DIMASZ
 40
0.18
  9
$DIMEXO
 40
0.0625
  9
$DIMDLI
 40
0.38
  9
$DIMRND
 40
0.0
  9
$DIMDLE
 40
0.0
  9
$DIMEXE
 40
0.18
  9
$DIMTP
 40
0.0
  9
$DIMTM
 40
0.0
  9
$DIMTXT
 40
0.18
  9
$DIMCEN
 40
0.09
  9
$DIMTSZ
 40
0.0
  9
$DIMTOL
 70
     0
  9
$DIMLIM
 70
     0
  9
$DIMTIH
 70
     1
  9
$DIMTOH
 70
     1
  9
$DIMSE1
 70
     0
  9
$DIMSE2
 70
     0
  9
$DIMTAD
 70
     0
  9
$DIMZIN
 70
     0
  9
$DIMBLK
  1

  9
$DIMASO
 70
     1
  9
$DIMSHO
 70
     1
  9
$DIMPOST
  1

  9
$DIMAPOST
  1

  9
$DIMALT
 70
     0
  9
$DIMALTD
 70
     2
  9
$DIMALTF
 40
25.4
  9
$DIMLFAC
 40
1.0
  9
$DIMTOFL
 70
     0
  9
$DIMTVP
 40
0.0
  9
$DIMTIX
 70
     0
  9
$DIMSOXD
 70
     0
  9
$DIMSAH
 70
     0
  9
$DIMBLK1
  1

  9
$DIMBLK2
  1

  9
$DIMSTYLE
  2
Standard
  9
$DIMCLRD
 70
     0
  9
$DIMCLRE
 70
     0
  9
$DIMCLRT
 70
     0
  9
$DIMTFAC
 40
1.0
  9
$DIMGAP
 40
0.09
  9
$DIMJUST
 70
     0
  9
$DIMSD1
 70
     0
  9
$DIMSD2
 70
     0
  9
$DIMTOLJ
 70
     1
  9
$DIMTZIN
 70
     0
  9
$DIMALTZ
 70
     0
  9
$DIMALTTZ
 70
     0
  9
$DIMUPT
 70
     0
  9
$DIMDEC
 70
     4
  9
$DIMTDEC
 70
     4
  9
$DIMALTU
 70
     2
  9
$DIMALTTD
 70
     2
  9
$DIMTXSTY
  7
Standard
  9
$DIMAUNIT
 70
     0
  9
$DIMADEC
 70
     0
  9
$DIMALTRND
 40
0.0
  9
$DIMAZIN
 70
     0
  9
$DIMDSEP
 70
    46
  9
$DIMATFIT
 70
     3
  9
$DIMFRAC
 70
     0
  9
$DIMLDRBLK
  1

  9
$DIMLUNIT
 70
     2
  9
$DIMLWD
 70
    -2
  9
$DIMLWE
 70
    -2
  9
$DIMTMOVE
 70
     2
  9
$LUNITS
 70
     2
  9
$LUPREC
 70
     3
  9
$SKETCHINC
 40
0.1
  9
$FILLETRAD
 40
0.5
  9
$AUNITS
 70
     0
  9
$AUPREC
 70
     0
  9
$MENU
  1
.
  9
$ELEVATION
 40
0.0
  9
$PELEVATION
 40
0.0
  9
$THICKNESS
 40
0.0
  9
$LIMCHECK
 70
     0
  9
$CHAMFERA
 40
0.5
  9
$CHAMFERB
 40
0.5
  9
$CHAMFERC
 40
1.0
  9
$CHAMFERD
 40
0.0
  9
$SKPOLY
 70
     0
  9
$TDCREATE
 40
2457213.732901424
  9
$TDUCREATE
 40
2457213.64956809
  9
$TDUPDATE
 40
2457213.732901435
  9
$TDUUPDATE
 40
2457213.649568102
  9
$TDINDWG
 40
0.0000000116
  9
$TDUSRTIMER
 40
0.0000000116
  9
$USRTIMER
 70
     1
  9
$ANGBASE
 50
0.0
  9
$ANGDIR
 70
     0
  9
$PDMODE
 70
     0
  9
$PDSIZE
 40
0.0
  9
$PLINEWID
 40
0.0
  9
$SPLFRAME
 70
     0
  9
$SPLINETYPE
 70
     6
  9
$SPLINESEGS
 70
     8
  9
$HANDSEED
  5
181
  9
$SURFTAB1
 70
     6
  9
$SURFTAB2
 70
     6
  9
$SURFTYPE
 70
     6
  9
$SURFU
 70
     6
  9
$SURFV
 70
     6
  9
$UCSBASE
  2

  9
$UCSNAME
  2

  9
$UCSORG
 10
0.0
 20
0.0
 30
0.0
  9
$UCSXDIR
 10
1.0
 20
0.0
 30
0.0
  9
$UCSYDIR
 10
0.0
 20
1.0
 30
0.0
  9
$UCSORTHOREF
  2

  9
$UCSORTHOVIEW
 70
     0
  9
$UCSORGTOP
 10
0.0
 20
0.0
 30
0.0
  9
$UCSORGBOTTOM
 10
0.0
 20
0.0
 30
0.0
  9
$UCSORGLEFT
 10
0.0
 20
0.0
 30
0.0
  9
$UCSORGRIGHT
 10
0.0
 20
0.0
 30
0.0
  9
$UCSORGFRONT
 10
0.0
 20
0.0
 30
0.0
  9
$UCSORGBACK
 10
0.0
 20
0.0
 30
0.0
  9
$PUCSBASE
  2

  9
$PUCSNAME
  2

  9
$PUCSORG
 10
0.0
 20
0.0
 30
0.0
  9
$PUCSXDIR
 10
1.0
 20
0.0
 30
0.0
  9
$PUCSYDIR
 10
0.0
 20
1.0
 30
0.0
  9
$PUCSORTHOREF
  2

  9
$PUCSORTHOVIEW
 70
     0
  9
$PUCSORGTOP
 10
0.0
 20
0.0
 30
0.0
  9
$PUCSORGBOTTOM
 10
0.0
 20
0.0
 30
0.0
  9
$PUCSORGLEFT
 10
0.0
 20
0.0
 30
0.0
  9
$PUCSORGRIGHT
 10
0.0
 20
0.0
 30
0.0
  9
$PUCSORGFRONT
 10
0.0
 20
0.0
 30
0.0
  9
$PUCSORGBACK
 10
0.0
 20
0.0
 30
0.0
  9
$USERI1
 70
     0
  9
$USERI2
 70
     0
  9
$USERI3
 70
     0
  9
$USERI4
 70
     0
  9
$USERI5
 70
     0
  9
$USERR1
 40
0.0
  9
$USERR2
 40
0.0
  9
$USERR3
 40
0.0
  9
$USERR4
 40
0.0
  9
$USERR5
 40
0.0
  9
$WORLDVIEW
 70
     1
  9
$SHADEDGE
 70
     3
  9
$SHADEDIF
 70
    70
  9
$TILEMODE
 70
     1
  9
$MAXACTVP
 70
    64
  9
$PINSBASE
 10
0.0
 20
0.0
 30
0.0
  9
$PLIMCHECK
 70
     0
  9
$PEXTMIN
 10
1.000000000000000E+20
 20
1.000000000000000E+20
 30
1.000000000000000E+20
  9
$PEXTMAX
 10
-1.000000000000000E+20
 20
-1.000000000000000E+20
 30
-1.000000000000000E+20
  9
$PLIMMIN
 10
0.0
 20
0.0
  9
$PLIMMAX
 10
12.0
 20
9.0
  9
$UNITMODE
 70
     0
  9
$VISRETAIN
 70
     1
  9
$PLINEGEN
 70
     0
  9
$PSLTSCALE
 70
     1
  9
$TREEDEPTH
 70
  3020
  9
$CMLSTYLE
  2
Standard
  9
$CMLJUST
 70
     0
  9
$CMLSCALE
 40
1.0
  9
$PROXYGRAPHICS
 70
     1
  9
$MEASUREMENT
 70
     0
  9
$CELWEIGHT
370
    -1
  9
$ENDCAPS
280
     0
  9
$JOINSTYLE
280
     0
  9
$LWDISPLAY
290
     0
  9
$INSUNITS
 70
     4
  9
$HYPERLINKBASE
  1

  9
$STYLESHEET
  1

  9
$XEDIT
290
     1
  9
$CEPSNTYPE
380
     0
  9
$PSTYLEMODE
290
     1
  9
$FINGERPRINTGUID
  2
{5C44D89F-331C-47AF-B1D0-C00635D37358}
  9
$VERSIONGUID
  2
{FAEB1C32-E019-11D5-929B-00C0DF256EC4}
  9
$EXTNAMES
290
     1
  9
$PSVPSCALE
 40
0.0
  9
$OLESTARTUP
290
     0
  9
$SORTENTS
280
   127
  9
$INDEXCTL
280
     0
  9
$HIDETEXT
280
     1
  9
$XCLIPFRAME
290
     0
  9
$HALOGAP
280
     0
  9
$OBSCOLOR
 70
   257
  9
$OBSLTYPE
280
     0
  9
$INTERSECTIONDISPLAY
280
     0
  9
$INTERSECTIONCOLOR
 70
   257
  9
$DIMASSOC
280
     2
  9
$PROJECTNAME
  1

  0
ENDSEC
  0
SECTION
  2
CLASSES
  0
CLASS
  1
ACDBDICTIONARYWDFLT
  2
AcDbDictionaryWithDefault
  3
ObjectDBX Classes
 90
        0
 91
        4
280
     0
281
     0
  0
CLASS
  1
VISUALSTYLE
  2
AcDbVisualStyle
  3
ObjectDBX Classes
 90
     4095
 91
        4
280
     0
281
     0
  0
ENDSEC
  0
SECTION
  2
TABLES
  0
TABLE
  2
VPORT
  5
8
330
0
100
AcDbSymbolTable
 70
     1
  0
VPORT
  5
29
330
8
100
AcDbSymbolTableRecord
100
AcDbViewportTableRecord
  2
*Active
 70
     0
 10
0.0
 20
0.0
 11
1.0
 21
1.0
 12
1002.901218403944
 22
616.2686216180747
 13
0.0
 23
0.0
 14
0.5
 24
0.5
 15
0.5
 25
0.5
 16
0.0
 26
0.0
 36
1.0
 17
0.0
 27
0.0
 37
0.0
 40
1971.187988100872
 41
1.400129516922975
 42
50.0
 43
0.0
 44
0.0
 50
0.0
 51
0.0
 71
     0
 72
   100
 73
     1
 74
     3
 75
     0
 76
     0
 77
     0
 78
     0
281
     0
 65
     1
110
0.0
120
0.0
130
0.0
111
1.0
121
0.0
131
0.0
112
0.0
122
1.0
132
0.0
 79
     0
146
0.0
  0
ENDTAB
  0
TABLE
  2
LTYPE
  5
5
330
0
100
AcDbSymbolTable
 70
     1
  0
LTYPE
  5
14
330
5
100
AcDbSymbolTableRecord
100
AcDbLinetypeTableRecord
  2
ByBlock
 70
     0
  3

 72
    65
 73
     0
 40
0.0
  0
LTYPE
  5
15
330
5
100
AcDbSymbolTableRecord
100
AcDbLinetypeTableRecord
  2
ByLayer
 70
     0
  3

 72
    65
 73
     0
 40
0.0
  0
LTYPE
  5
16
330
5
100
AcDbSymbolTableRecord
100
AcDbLinetypeTableRecord
  2
Continuous
 70
     0
  3
Solid line
 72
    65
 73
     0
 40
0.0
  0
ENDTAB
  0
TABLE
  2
LAYER
  5
2
330
0
100
AcDbSymbolTable
 70
     2
  0
LAYER
  5
10
330
2
100
AcDbSymbolTableRecord
100
AcDbLayerTableRecord
  2
0
 70
     0
 62
     7
  6
Continuous
370
    -3
390
F
  0
LAYER
  5
3B
330
2
100
AcDbSymbolTableRecord
100
AcDbLayerTableRecord
  2
Miura_Table_9590-01_2D
 70
     0
 62
     7
  6
Continuous
370
    -3
390
F
  0
ENDTAB
  0
TABLE
  2
STYLE
  5
3
330
0
100
AcDbSymbolTable
 70
     1
  0
STYLE
  5
11
330
3
100
AcDbSymbolTableRecord
100
AcDbTextStyleTableRecord
  2
Standard
 70
     0
 40
0.0
 41
1.0
 50
0.0
 71
     0
 42
0.2
  3
txt
  4

  0
ENDTAB
  0
TABLE
  2
VIEW
  5
6
330
0
100
AcDbSymbolTable
 70
     0
  0
ENDTAB
  0
TABLE
  2
UCS
  5
7
330
0
100
AcDbSymbolTable
 70
     0
  0
ENDTAB
  0
TABLE
  2
APPID
  5
9
330
0
100
AcDbSymbolTable
 70
     1
  0
APPID
  5
12
330
9
100
AcDbSymbolTableRecord
100
AcDbRegAppTableRecord
  2
ACAD
 70
     0
  0
ENDTAB
  0
TABLE
  2
DIMSTYLE
  5
A
330
0
100
AcDbSymbolTable
 70
     1
100
AcDbDimStyleTable
  0
DIMSTYLE
105
27
330
A
100
AcDbSymbolTableRecord
100
AcDbDimStyleTableRecord
  2
Standard
 70
     0
340
11
  0
ENDTAB
  0
TABLE
  2
BLOCK_RECORD
  5
1
330
0
100
AcDbSymbolTable
 70
     1
  0
BLOCK_RECORD
  5
1F
330
1
100
AcDbSymbolTableRecord
100
AcDbBlockTableRecord
  2
*Model_Space
340
22
  0
BLOCK_RECORD
  5
1B
330
1
100
AcDbSymbolTableRecord
100
AcDbBlockTableRecord
  2
*Paper_Space
340
1E
  0
BLOCK_RECORD
  5
23
330
1
100
AcDbSymbolTableRecord
100
AcDbBlockTableRecord
  2
*Paper_Space0
340
26
  0
ENDTAB
  0
ENDSEC
  0
SECTION
  2
BLOCKS
  0
BLOCK
  5
20
330
1F
100
AcDbEntity
  8
0
100
AcDbBlockBegin
  2
*Model_Space
 70
     0
 10
0.0
 20
0.0
 30
0.0
  3
*Model_Space
  1

  0
ENDBLK
  5
21
330
1F
100
AcDbEntity
  8
0
100
AcDbBlockEnd
  0
BLOCK
  5
1C
330
1B
100
AcDbEntity
 67
     1
  8
0
100
AcDbBlockBegin
  2
*Paper_Space
 70
     0
 10
0.0
 20
0.0
 30
0.0
  3
*Paper_Space
  1

  0
ENDBLK
  5
1D
330
1B
100
AcDbEntity
 67
     1
  8
0
100
AcDbBlockEnd
  0
BLOCK
  5
24
330
23
100
AcDbEntity
  8
0
100
AcDbBlockBegin
  2
*Paper_Space0
 70
     0
 10
0.0
 20
0.0
 30
0.0
  3
*Paper_Space0
  1

  0
ENDBLK
  5
25
330
23
100
AcDbEntity
  8
0
100
AcDbBlockEnd
  0
ENDSEC
  0
SECTION
  2
ENTITIES
  0
LINE
  5
3C
330
1F
100
AcDbEntity
  8
Miura_Table_9590-01_2D
100
AcDbLine
 10
-24.99942602276951
 20
1222.677272435327
 30
0.0
 11
-24.99942602276951
 21
1542.537243242299
 31
0.0
  0
LINE
  5
3D
330
1F
100
AcDbEntity
  8
Miura_Table_9590-01_2D
100
AcDbLine
 10
25.00032668345648
 20
1542.537243242297
 30
0.0
 11
25.00032668345648
 21
1222.671019341093
 31
0.0
  0
LINE
  5
3E
330
1F
100
AcDbEntity
  8
Miura_Table_9590-01_2D
100
AcDbLine
 10
1980.802110436206
 20
1219.926330983047
 30
0.0
 11
1980.802110436206
 21
1542.537243236149
 31
0.0
  0
LINE
  5
3F
330
1F
100
AcDbEntity
  8
Miura_Table_9590-01_2D
100
AcDbLine
 10
2030.801863142432
 20
1542.537243236149
 30
0.0
 11
2030.801863142432
 21
1219.926330983047
 31
0.0
  0
SPLINE
  5
40
330
1F
100
AcDbEntity
  8
Miura_Table_9590-01_2D
100
AcDbSpline
210
0.0
220
0.0
230
1.0
 70
    24
 71
     3
 72
     9
 73
     5
 74
     0
 42
0.0000000001
 43
0.0000000001
 40
0.0
 40
0.0
 40
0.0
 40
0.0
 40
0.0006373261368182
 40
137.5005588484815
 40
137.5005588484815
 40
137.5005588484815
 40
137.5005588484815
 10
2143.301795453603
 20
1566.537243236149
 30
0.0
 10
2143.302817879273
 20
1566.537243236148
 30
0.0
 10
2097.469416866359
 20
1566.537243236148
 30
0.0
 10
2051.63577222612
 20
1566.537243236148
 30
0.0
 10
2005.802474032625
 20
1566.537243236149
 30
0.0
  0
SPLINE
  5
41
330
1F
100
AcDbEntity
  8
Miura_Table_9590-01_2D
100
AcDbSpline
210
0.0
220
0.0
230
1.0
 70
    24
 71
     2
 72
     6
 73
     3
 74
     0
 42
0.0000000001
 43
0.0000000001
 40
0.0
 40
0.0
 40
0.0
 40
137.4994130277261
 40
137.4994130277261
 40
137.4994130277261
 10
2005.802474032625
 20
1566.537243236149
 30
0.0
 10
1937.052748906377
 20
1566.537243236149
 30
0.0
 10
1868.303023780129
 20
1566.537243236149
 30
0.0
  0
SPLINE
  5
42
330
1F
100
AcDbEntity
  8
Miura_Table_9590-01_2D
100
AcDbSpline
210
0.0
220
0.0
230
1.0
 70
    12
 71
     2
 72
     6
 73
     3
 74
     0
 42
0.0000000001
 43
0.0000000001
 40
-0.0017236465548061
 40
-0.0017236465548061
 40
-0.0017236465548061
 40
0.0
 40
0.0
 40
0.0
 10
2143.304297242747
 20
1566.537243932034
 30
0.0
 41
1.0
 10
2143.305159065513
 20
1566.537244871856
 30
0.0
 41
1.0
 10
2143.306020888277
 20
1566.53724581134
 30
0.0
 41
1.0
  0
SPLINE
  5
43
330
1F
100
AcDbEntity
  8
Miura_Table_9590-01_2D
100
AcDbSpline
210
0.0
220
0.0
230
1.0
 70
    12
 71
     2
 72
     6
 73
     3
 74
     0
 42
0.0000000001
 43
0.0000000001
 40
0.0
 40
0.0
 40
0.0
 40
3.923393678308207
 40
3.923393678308207
 40
3.923393678308207
 10
2143.306020888277
 20
1566.53724581134
 30
0.0
 41
1.0
 10
2145.802429955069
 20
1566.540831594076
 30
0.0
 41
0.7076128936508792
 10
2145.802427969739
 20
1569.037243236149
 30
0.0
 41
0.9999999999935767
  0
SPLINE
  5
44
330
1F
100
AcDbEntity
  8
Miura_Table_9590-01_2D
100
AcDbSpline
210
0.0
220
0.0
230
1.0
 70
    24
 71
     2
 72
     6
 73
     3
 74
     0
 42
0.0000000001
 43
0.0000000001
 40
0.0
 40
0.0
 40
0.0
 40
3.5
 40
3.5
 40
3.5
 10
2145.80242796974
 20
1569.037243236149
 30
0.0
 10
2145.80226388676
 20
1570.787243236149
 30
0.0
 10
2145.80209980378
 20
1572.537243236149
 30
0.0
  0
SPLINE
  5
45
330
1F
100
AcDbEntity
  8
Miura_Table_9590-01_2D
100
AcDbSpline
210
0.0
220
0.0
230
1.0
 70
    24
 71
     2
 72
     6
 73
     3
 74
     0
 42
0.0000000001
 43
0.0000000001
 40
-139.9993259299168
 40
-139.9993259299168
 40
-139.9993259299168
 40
0.0
 40
0.0
 40
0.0
 10
2145.80209980378
 20
1572.537243236149
 30
0.0
 10
2075.802268305834
 20
1572.537243236149
 30
0.0
 10
2005.802436807888
 20
1572.537243236149
 30
0.0
  0
SPLINE
  5
46
330
1F
100
AcDbEntity
  8
Miura_Table_9590-01_2D
100
AcDbSpline
210
0.0
220
0.0
230
1.0
 70
    24
 71
     3
 72
     9
 73
     5
 74
     0
 42
0.0000000001
 43
0.0000000001
 40
-140.0006740700831
 40
-140.0006740700831
 40
-140.0006740700831
 40
-140.0006740700831
 40
-0.000588034942917
 40
0.0
 40
0.0
 40
0.0
 40
0.0
 10
2005.802436807888
 20
1572.537243236149
 30
0.0
 10
1959.135857480736
 20
1572.537243236147
 30
0.0
 10
1912.468755109328
 20
1572.53724323615
 30
0.0
 10
1865.802134121758
 20
1572.537243236151
 30
0.0
 10
1865.802773811998
 20
1572.537243236149
 30
0.0
  0
SPLINE
  5
47
330
1F
100
AcDbEntity
  8
Miura_Table_9590-01_2D
100
AcDbSpline
210
0.0
220
0.0
230
1.0
 70
    24
 71
     2
 72
     6
 73
     3
 74
     0
 42
0.0000000001
 43
0.0000000001
 40
0.0
 40
0.0
 40
0.0
 40
3.5
 40
3.5
 40
3.5
 10
1865.802773811998
 20
1572.537243236149
 30
0.0
 10
1865.802590363732
 20
1570.787243236149
 30
0.0
 10
1865.802406915467
 20
1569.037243236149
 30
0.0
  0
SPLINE
  5
48
330
1F
100
AcDbEntity
  8
Miura_Table_9590-01_2D
100
AcDbSpline
210
0.0
220
0.0
230
1.0
 70
    12
 71
     2
 72
     6
 73
     3
 74
     0
 42
0.0000000001
 43
0.0000000001
 40
0.0
 40
0.0
 40
0.0
 40
3.923569074038741
 40
3.923569074038741
 40
3.923569074038741
 10
1865.802406915467
 20
1569.03724323615
 30
0.0
 41
0.9999999999897549
 10
1865.802382265077
 20
1566.540665586072
 30
0.0
 41
0.7075916723679009
 10
1868.298957572611
 20
1566.537245587586
 30
0.0
 41
1.0
  0
SPLINE
  5
49
330
1F
100
AcDbEntity
  8
Miura_Table_9590-01_2D
100
AcDbSpline
210
0.0
220
0.0
230
1.0
 70
    28
 71
     2
 72
     6
 73
     3
 74
     0
 42
0.0000000001
 43
0.0000000001
 40
0.0
 40
0.0
 40
0.0
 40
0.0017079348288815
 40
0.0017079348288815
 40
0.0017079348288815
 10
1868.298957572611
 20
1566.537245587586
 30
0.0
 41
1.0
 10
1868.299811539573
 20
1566.537244708169
 30
0.0
 41
1.0
 10
1868.300665506534
 20
1566.537243828644
 30
0.0
 41
1.0
  0
SPLINE
  5
4A
330
1F
100
AcDbEntity
  8
Miura_Table_9590-01_2D
100
AcDbSpline
210
0.0
220
0.0
230
1.0
 70
    28
 71
     2
 72
     6
 73
     3
 74
     0
 42
0.0000000001
 43
0.0000000001
 40
-0.0016858811199636
 40
-0.0016858811199636
 40
-0.0016858811199636
 40
0.0
 40
0.0
 40
0.0
 10
-137.5019586246008
 20
1566.537244011914
 30
0.0
 41
1.0
 10
-137.5028015646303
 20
1566.53724495747
 30
0.0
 41
1.0
 10
-137.5036445046599
 20
1566.537245902915
 30
0.0
 41
1.0
  0
SPLINE
  5
4B
330
1F
100
AcDbEntity
  8
Miura_Table_9590-01_2D
100
AcDbSpline
210
0.0
220
0.0
230
1.0
 70
    12
 71
     2
 72
     6
 73
     3
 74
     0
 42
0.0000000001
 43
0.0000000001
 40
0.0
 40
0.0
 40
0.0
 40
3.923330453739822
 40
3.923330453739822
 40
3.923330453739822
 10
-137.5036445046599
 20
1566.537245902915
 30
0.0
 41
1.0
 10
-139.999991805237
 20
1566.540893277139
 30
0.0
 41
0.7076212603681254
 10
-139.9999890541424
 20
1569.037243242297
 30
0.0
 41
0.9999999999904636
  0
SPLINE
  5
4C
330
1F
100
AcDbEntity
  8
Miura_Table_9590-01_2D
100
AcDbSpline
210
0.0
220
0.0
230
1.0
 70
    24
 71
     2
 72
     6
 73
     3
 74
     0
 42
0.0000000001
 43
0.0000000001
 40
0.0
 40
0.0
 40
0.0
 40
3.499999999999773
 40
3.499999999999773
 40
3.499999999999773
 10
-139.9999890541421
 20
1569.037243242297
 30
0.0
 10
-139.9998258691289
 20
1570.787243242297
 30
0.0
 10
-139.9996626841157
 20
1572.537243242297
 30
0.0
  0
SPLINE
  5
4D
330
1F
100
AcDbEntity
  8
Miura_Table_9590-01_2D
100
AcDbSpline
210
0.0
220
0.0
230
1.0
 70
    24
 71
     3
 72
     8
 73
     4
 74
     0
 42
0.0000000001
 43
0.0000000001
 40
-279.9993259299167
 40
-279.9993259299167
 40
-279.9993259299167
 40
-279.9993259299167
 40
0.0
 40
0.0
 40
0.0
 40
0.0
 10
-139.9996626841157
 20
1572.537243242297
 30
0.0
 10
-46.66621697483606
 20
1572.537243242296
 30
0.0
 10
46.66689166846936
 20
1572.537243242295
 30
0.0
 10
140.0000003427076
 20
1572.537243242297
 30
0.0
  0
SPLINE
  5
4E
330
1F
100
AcDbEntity
  8
Miura_Table_9590-01_2D
100
AcDbSpline
210
0.0
220
0.0
230
1.0
 70
    24
 71
     2
 72
     6
 73
     3
 74
     0
 42
0.0000000001
 43
0.0000000001
 40
0.0
 40
0.0
 40
0.0
 40
3.5
 40
3.5
 40
3.5
 10
140.0000003427076
 20
1572.537243242297
 30
0.0
 10
140.0000003467999
 20
1570.787243242297
 30
0.0
 10
140.0000003508922
 20
1569.037243242297
 30
0.0
  0
SPLINE
  5
4F
330
1F
100
AcDbEntity
  8
Miura_Table_9590-01_2D
100
AcDbSpline
210
0.0
220
0.0
230
1.0
 70
    12
 71
     2
 72
     6
 73
     3
 74
     0
 42
0.0000000001
 43
0.0000000001
 40
0.0
 40
0.0
 40
0.0
 40
3.926978729214439
 40
3.926978729214439
 40
3.926978729214439
 10
140.0000003508922
 20
1569.037243242297
 30
0.0
 41
1.0
 10
139.9999997171599
 20
1566.537255678787
 30
0.0
 41
0.7071086263809615
 10
137.500006233292
 20
1566.537243242311
 30
0.0
 41
1.0
  0
SPLINE
  5
50
330
1F
100
AcDbEntity
  8
Miura_Table_9590-01_2D
100
AcDbSpline
210
0.0
220
0.0
230
1.0
 70
    24
 71
     3
 72
     9
 73
     5
 74
     0
 42
0.0000000001
 43
0.0000000001
 40
-275.000634640636
 40
-275.000634640636
 40
-275.000634640636
 40
-275.000634640636
 40
-0.0006371167132784
 40
0.0
 40
0.0
 40
0.0
 40
0.0
 10
137.500006233292
 20
1566.537243242311
 30
0.0
 10
45.83335465098753
 20
1566.537243242295
 30
0.0
 10
-45.83358505928572
 20
1566.537243242302
 30
0.0
 10
-137.5003990038122
 20
1566.537243242297
 30
0.0
 10
-137.4993600943062
 20
1566.537243242297
 30
0.0
  0
SPLINE
  5
51
330
1F
100
AcDbEntity
  8
Miura_Table_9590-01_2D
100
AcDbSpline
210
0.0
220
0.0
230
1.0
 70
    24
 71
     2
 72
     6
 73
     3
 74
     0
 42
0.0000000001
 43
0.0000000001
 40
0.0
 40
0.0
 40
0.0
 40
47.99851635084929
 40
47.99851635084929
 40
47.99851635084929
 10
91.56793484226
 20
1566.536501409768
 30
0.0
 10
70.78396758254121
 20
1554.536872326033
 30
0.0
 10
50.00000032282242
 20
1542.537243242297
 30
0.0
  0
SPLINE
  5
52
330
1F
100
AcDbEntity
  8
Miura_Table_9590-01_2D
100
AcDbSpline
210
0.0
220
0.0
230
1.0
 70
    24
 71
     3
 72
    10
 73
     6
 74
     0
 42
0.0000000001
 43
0.0000000001
 40
-100.0009354610945
 40
-100.0009354610945
 40
-100.0009354610945
 40
-100.0009354610945
 40
-0.0009354610938317
 40
-0.0007038564751838
 40
0.0
 40
0.0
 40
0.0
 40
0.0
 10
50.00000032282242
 20
1542.537243242297
 30
0.0
 10
16.66669703103616
 20
1542.537243242295
 30
0.0
 10
-16.66680366354649
 20
1542.5372432423
 30
0.0
 10
-50.00035007035603
 20
1542.5372432423
 30
0.0
 10
-49.99868852134932
 20
1542.537243242297
 30
0.0
 10
-49.99953196872502
 20
1542.537243242297
 30
0.0
  0
SPLINE
  5
53
330
1F
100
AcDbEntity
  8
Miura_Table_9590-01_2D
100
AcDbSpline
210
0.0
220
0.0
230
1.0
 70
    24
 71
     2
 72
     6
 73
     3
 74
     0
 42
0.0000000001
 43
0.0000000001
 40
0.0
 40
0.0
 40
0.0
 40
47.99848741513637
 40
47.99848741513637
 40
47.99848741513637
 10
-49.99953196872502
 20
1542.537243242297
 30
0.0
 10
-70.7837205641863
 20
1554.536865092104
 30
0.0
 10
-91.56790915964757
 20
1566.536486941912
 30
0.0
  0
SPLINE
  5
54
330
1F
100
AcDbEntity
  8
Miura_Table_9590-01_2D
100
AcDbSpline
210
0.0
220
0.0
230
1.0
 70
    24
 71
     2
 72
     6
 73
     3
 74
     0
 42
0.0000000001
 43
0.0000000001
 40
-47.99848741513632
 40
-47.99848741513632
 40
-47.99848741513632
 40
0.0
 40
0.0
 40
0.0
 10
2097.370346279311
 20
1566.536486935764
 30
0.0
 10
2076.58615768385
 20
1554.536865085957
 30
0.0
 10
2055.801969088389
 20
1542.537243236149
 30
0.0
  0
SPLINE
  5
55
330
1F
100
AcDbEntity
  8
Miura_Table_9590-01_2D
100
AcDbSpline
210
0.0
220
0.0
230
1.0
 70
    24
 71
     3
 72
    10
 73
     6
 74
     0
 42
0.0000000001
 43
0.0000000001
 40
0.0
 40
0.0
 40
0.0
 40
0.0
 40
0.0007038564752122
 40
0.0009354610935191
 40
50.0009354610936
 40
50.0009354610936
 40
50.0009354610936
 40
50.0009354610936
 10
2055.801969088389
 20
1542.537243236149
 30
0.0
 10
2055.801140335271
 20
1542.537243236152
 30
0.0
 10
2055.802774008693
 20
1542.537243236149
 30
0.0
 10
2039.135935720872
 20
1542.537243236151
 30
0.0
 10
2022.469052803432
 20
1542.537243236148
 30
0.0
 10
2005.802436807888
 20
1542.537243236149
 30
0.0
  0
SPLINE
  5
56
330
1F
100
AcDbEntity
  8
Miura_Table_9590-01_2D
100
AcDbSpline
210
0.0
220
0.0
230
1.0
 70
    24
 71
     2
 72
     6
 73
     3
 74
     0
 42
0.0000000001
 43
0.0000000001
 40
0.0
 40
0.0
 40
0.0
 40
49.99906453890648
 40
49.99906453890648
 40
49.99906453890648
 10
2005.802436807888
 20
1542.537243236149
 30
0.0
 10
1980.802670667638
 20
1542.537243236149
 30
0.0
 10
1955.802904527387
 20
1542.537243236149
 30
0.0
  0
SPLINE
  5
57
330
1F
100
AcDbEntity
  8
Miura_Table_9590-01_2D
100
AcDbSpline
210
0.0
220
0.0
230
1.0
 70
    24
 71
     2
 72
     6
 73
     3
 74
     0
 42
0.0000000001
 43
0.0000000001
 40
-47.9984874151363
 40
-47.9984874151363
 40
-47.9984874151363
 40
0.0
 40
0.0
 40
0.0
 10
1955.802904527387
 20
1542.537243236149
 30
0.0
 10
1935.018715931927
 20
1554.536865085957
 30
0.0
 10
1914.234527336466
 20
1566.536486935764
 30
0.0
  0
LINE
  5
58
330
1F
100
AcDbEntity
  8
Miura_Table_9590-01_2D
100
AcDbLine
 10
-349.9369911963566
 20
1582.537243236149
 30
0.0
 11
-349.9369911963566
 21
1572.537243236149
 31
0.0
  0
LINE
  5
59
330
1F
100
AcDbEntity
  8
Miura_Table_9590-01_2D
100
AcDbLine
 10
-349.9369911963566
 20
1572.537243236149
 30
0.0
 11
350.0630088036434
 21
1572.537243236149
 31
0.0
  0
LINE
  5
5A
330
1F
100
AcDbEntity
  8
Miura_Table_9590-01_2D
100
AcDbLine
 10
350.0630088036434
 20
1572.537243236149
 30
0.0
 11
350.0630088036434
 21
1582.537243236149
 31
0.0
  0
LINE
  5
5B
330
1F
100
AcDbEntity
  8
Miura_Table_9590-01_2D
100
AcDbLine
 10
350.0630088036434
 20
1582.537243236149
 30
0.0
 11
-349.9369911963566
 21
1582.537243236149
 31
0.0
  0
LINE
  5
5C
330
1F
100
AcDbEntity
  8
Miura_Table_9590-01_2D
100
AcDbLine
 10
1655.802436807888
 20
1582.537243236149
 30
0.0
 11
1655.802436807888
 21
1572.537243236149
 31
0.0
  0
LINE
  5
5D
330
1F
100
AcDbEntity
  8
Miura_Table_9590-01_2D
100
AcDbLine
 10
1655.802436807888
 20
1572.537243236149
 30
0.0
 11
2355.802436807888
 21
1572.537243236149
 31
0.0
  0
LINE
  5
5E
330
1F
100
AcDbEntity
  8
Miura_Table_9590-01_2D
100
AcDbLine
 10
2355.802436807888
 20
1572.537243236149
 30
0.0
 11
2355.802436807888
 21
1582.537243236149
 31
0.0
  0
LINE
  5
5F
330
1F
100
AcDbEntity
  8
Miura_Table_9590-01_2D
100
AcDbLine
 10
2355.802436807888
 20
1582.537243236149
 30
0.0
 11
1655.802436807888
 21
1582.537243236149
 31
0.0
  0
CIRCLE
  5
60
330
1F
100
AcDbEntity
  8
Miura_Table_9590-01_2D
100
AcDbCircle
 10
0.0
 20
0.0
 30
0.0
 40
350.0
  0
SPLINE
  5
61
330
1F
100
AcDbEntity
  8
Miura_Table_9590-01_2D
 62
     9
100
AcDbSpline
210
0.0
220
0.0
230
1.0
 70
    24
 71
     2
 72
     6
 73
     3
 74
     0
 42
0.0000000001
 43
0.0000000001
 40
0.0
 40
0.0
 40
0.0
 40
203.6334854806771
 40
203.6334854806771
 40
203.6334854806771
 10
-25.13000115975137
 20
137.7259695286505
 30
0.0
 10
-25.13000115975183
 20
239.542712268989
 30
0.0
 10
-25.13000115975228
 20
341.3594550093276
 30
0.0
  0
SPLINE
  5
62
330
1F
100
AcDbEntity
  8
Miura_Table_9590-01_2D
 62
     9
100
AcDbSpline
210
0.0
220
0.0
230
1.0
 70
    24
 71
     2
 72
     6
 73
     3
 74
     0
 42
0.0000000001
 43
0.0000000001
 40
0.0
 40
0.0
 40
0.0
 40
203.6333458706113
 40
203.6333458706113
 40
203.6333458706113
 10
25.13000115975319
 20
341.3594550093279
 30
0.0
 10
25.13000115975319
 20
239.5427820740223
 30
0.0
 10
25.13000115975319
 20
137.7261091387166
 30
0.0
  0
SPLINE
  5
63
330
1F
100
AcDbEntity
  8
Miura_Table_9590-01_2D
 62
     9
100
AcDbSpline
210
0.0
220
0.0
230
1.0
 70
    24
 71
     2
 72
     6
 73
     3
 74
     0
 42
0.0000000001
 43
0.0000000001
 40
0.0
 40
0.0
 40
0.0
 40
203.633708102275
 40
203.633708102275
 40
203.633708102275
 10
-106.7089949968013
 20
-90.62609285499516
 30
0.0
 10
-194.8849771384989
 20
-141.534519880564
 30
0.0
 10
-283.0609592801966
 20
-192.4429469061328
 30
0.0
  0
SPLINE
  5
64
330
1F
100
AcDbEntity
  8
Miura_Table_9590-01_2D
 62
     9
100
AcDbSpline
210
0.0
220
0.0
230
1.0
 70
    24
 71
     2
 72
     6
 73
     3
 74
     0
 42
0.0000000001
 43
0.0000000001
 40
0.0
 40
0.0
 40
0.0
 40
203.633334284065
 40
203.633334284065
 40
203.633334284065
 10
-308.1909604399316
 20
-148.9165081031656
 30
0.0
 10
-220.015140166267
 20
-98.00817453214955
 30
0.0
 10
-131.8393198926024
 20
-47.09984096113351
 30
0.0
  0
SPLINE
  5
65
330
1F
100
AcDbEntity
  8
Miura_Table_9590-01_2D
 62
     9
100
AcDbSpline
210
0.0
220
0.0
230
1.0
 70
    24
 71
     2
 72
     6
 73
     3
 74
     0
 42
0.0000000001
 43
0.0000000001
 40
0.0
 40
0.0
 40
0.0
 40
203.6337242888049
 40
203.6337242888049
 40
203.6337242888049
 10
131.838982138609
 20
-47.09964595877372
 30
0.0
 10
220.0149712892799
 20
-98.00807703097482
 30
0.0
 10
308.1909604399507
 20
-148.9165081031759
 30
0.0
  0
SPLINE
  5
66
330
1F
100
AcDbEntity
  8
Miura_Table_9590-01_2D
 62
     9
100
AcDbSpline
210
0.0
220
0.0
230
1.0
 70
    24
 71
     2
 72
     6
 73
     3
 74
     0
 42
0.0000000001
 43
0.0000000001
 40
0.0
 40
0.0
 40
0.0
 40
203.6338520885392
 40
203.6338520885392
 40
203.6338520885392
 10
283.0609592801911
 20
-192.442946906129
 30
0.0
 10
194.8849147906121
 20
-141.534483883994
 30
0.0
 10
106.7088703010331
 20
-90.62602086185896
 30
0.0
  0
SPLINE
  5
67
330
1F
100
AcDbEntity
  8
Miura_Table_9590-01_2D
 62
     9
100
AcDbSpline
210
0.0
220
0.0
230
1.0
 70
    24
 71
     2
 72
     6
 73
     3
 74
     0
 42
0.0000000001
 43
0.0000000001
 40
0.0
 40
0.0
 40
0.0
 40
0.0064177164454542
 40
0.0064177164454542
 40
0.0064177164454542
 10
-25.12995699912881
 20
341.3594553392572
 30
0.0
 10
-25.12997849750536
 20
341.3626641254629
 30
0.0
 10
-25.12999999588192
 20
341.3658729116685
 30
0.0
  0
SPLINE
  5
68
330
1F
100
AcDbEntity
  8
Miura_Table_9590-01_2D
 62
     9
100
AcDbSpline
210
0.0
220
0.0
230
1.0
 70
    24
 71
     2
 72
     6
 73
     3
 74
     0
 42
0.0000000001
 43
0.0000000001
 40
0.0
 40
0.0
 40
0.0
 40
0.0064177164451132
 40
0.0064177164451132
 40
0.0064177164451132
 10
25.12999999588374
 20
341.3658729116685
 30
0.0
 10
25.12997849750718
 20
341.362664125463
 30
0.0
 10
25.12995699913063
 20
341.3594553392576
 30
0.0
  0
SPLINE
  5
69
330
1F
100
AcDbEntity
  8
Miura_Table_9590-01_2D
 62
     9
100
AcDbSpline
210
0.0
220
0.0
230
1.0
 70
    24
 71
     2
 72
     6
 73
     3
 74
     0
 42
0.0000000001
 43
0.0000000001
 40
0.0
 40
0.0
 40
0.0
 40
0.006417716462647
 40
0.006417716462647
 40
0.006417716462647
 10
-283.0609816462356
 20
-192.4429088268761
 30
0.0
 10
-283.0637497874241
 20
-192.4445318381235
 30
0.0
 10
-283.0665179286125
 20
-192.4461548493709
 30
0.0
  0
SPLINE
  5
6A
330
1F
100
AcDbEntity
  8
Miura_Table_9590-01_2D
 62
     9
100
AcDbSpline
210
0.0
220
0.0
230
1.0
 70
    24
 71
     2
 72
     6
 73
     3
 74
     0
 42
0.0000000001
 43
0.0000000001
 40
0.0
 40
0.0
 40
0.0
 40
0.0064177164832391
 40
0.0064177164832391
 40
0.0064177164832391
 10
-308.1965179244953
 20
-148.9197180622958
 30
0.0
 10
-308.1937282849212
 20
-148.9181322873239
 30
0.0
 10
-308.1909386453472
 20
-148.916546512352
 30
0.0
  0
SPLINE
  5
6B
330
1F
100
AcDbEntity
  8
Miura_Table_9590-01_2D
 62
     9
100
AcDbSpline
210
0.0
220
0.0
230
1.0
 70
    24
 71
     2
 72
     6
 73
     3
 74
     0
 42
0.0000000001
 43
0.0000000001
 40
0.0
 40
0.0
 40
0.0
 40
0.0064177164631026
 40
0.0064177164631026
 40
0.0064177164631026
 10
308.1909386453663
 20
-148.9165465123622
 30
0.0
 10
308.1937282849317
 20
-148.9181322873291
 30
0.0
 10
308.1965179244971
 20
-148.9197180622961
 30
0.0
  0
SPLINE
  5
6C
330
1F
100
AcDbEntity
  8
Miura_Table_9590-01_2D
 62
     9
100
AcDbSpline
210
0.0
220
0.0
230
1.0
 70
    24
 71
     2
 72
     6
 73
     3
 74
     0
 42
0.0000000001
 43
0.0000000001
 40
0.0
 40
0.0
 40
0.0
 40
0.0064177164707695
 40
0.0064177164707695
 40
0.0064177164707695
 10
283.0665179286134
 20
-192.4461548493711
 30
0.0
 10
283.0637497874213
 20
-192.4445318381217
 30
0.0
 10
283.0609816462293
 20
-192.4429088268723
 30
0.0
  0
SPLINE
  5
6D
330
1F
100
AcDbEntity
  8
Miura_Table_9590-01_2D
 62
     9
100
AcDbSpline
210
0.0
220
0.0
230
1.0
 70
    11
 71
     3
 72
    39
 73
    35
 74
     0
 42
0.0000000001
 43
0.0000000001
 40
0.0
 40
0.0
 40
0.0
 40
0.0
 40
27.49163491281067
 40
54.98554466015823
 40
82.47417243782984
 40
109.9550851858812
 40
137.4405102302657
 40
164.9353017108435
 40
192.4180551861614
 40
219.9101446616718
 40
247.4017795744827
 40
274.8956893218303
 40
302.3843170995021
 40
329.8652298475533
 40
357.3506548919382
 40
384.8454463725156
 40
412.3281998478335
 40
439.8202893233441
 40
467.311924236154
 40
494.8058339835015
 40
522.2944617611732
 40
549.7753745092244
 40
577.2607995536106
 40
604.755591034188
 40
632.2383445095059
 40
659.7304339850166
 40
687.222068897827
 40
714.7159786451745
 40
742.2046064228463
 40
769.6855191708972
 40
797.1709442152832
 40
824.6657356958605
 40
852.1484891711783
 40
879.6405786466887
 40
879.6405786466887
 40
879.6405786466887
 40
879.6405786466887
 10
140.0000000000009
 20
0.0000000000005116
 30
0.0
 10
140.0004090247703
 20
-9.163905643350944
 30
0.0
 10
138.1944212161625
 20
-27.49226151472897
 30
0.0
 10
130.1746570607302
 20
-53.92691684113075
 30
0.0
 10
117.1529651417422
 20
-78.28553407702432
 30
0.0
 10
99.63172728010431
 20
-99.63384262040996
 30
0.0
 10
78.28162397614233
 20
-117.156235995207
 30
0.0
 10
53.92195901493142
 20
-130.1759647592557
 30
0.0
 10
27.4892560780745
 20
-138.1956047753177
 30
0.0
 10
-0.0000802954209576
 20
-140.9019314174167
 30
0.0
 10
-27.49217534757645
 20
-138.1952675994851
 30
0.0
 10
-53.92697059658713
 20
-130.1741390086331
 30
0.0
 10
-78.2855009168843
 20
-117.1532839944569
 30
0.0
 10
-99.63386305126551
 20
-99.6315308786685
 30
0.0
 10
-117.156223404816
 20
-78.28174500353096
 30
0.0
 10
-130.1759725149677
 20
-53.9218844620375
 30
0.0
 10
-138.1955999973516
 20
-27.48930200693806
 30
0.0
 10
-140.9019343612681
 20
0.0001085936183927
 30
0.0
 10
-138.1952657857837
 20
27.49215791311335
 30
0.0
 10
-130.1741401260178
 20
53.9269813375987
 30
0.0
 10
-117.153283306192
 20
78.28549430083945
 30
0.0
 10
-99.63153130265346
 20
99.63386712688043
 30
0.0
 10
-78.28174474225762
 20
117.1562208932944
 30
0.0
 10
-53.92188462298327
 20
130.1759740620686
 30
0.0
 10
-27.48930190778628
 20
138.1955990442501
 30
0.0
 10
0.0001085325284294
 20
140.9019349485069
 30
0.0
 10
27.4921579507527
 20
138.1952654239892
 30
0.0
 10
53.92698131441102
 20
130.174140348913
 30
0.0
 10
78.2854943151242
 20
117.1532831688992
 30
0.0
 10
99.6339475237919
 20
99.63160615754401
 30
0.0
 10
117.1558984336098
 20
78.28154887639255
 30
0.0
 10
130.1764166945277
 20
53.92214983624064
 30
0.0
 10
138.1952207402082
 20
27.4890020842378
 30
0.0
 10
139.9993145385724
 20
9.163944759148961
 30
0.0
 10
140.0000000000009
 20
0.0000000000005116
 30
0.0
  0
SPLINE
  5
6E
330
1F
100
AcDbEntity
  8
Miura_Table_9590-01_2D
 62
     9
100
AcDbSpline
210
0.0
220
0.0
230
1.0
 70
    11
 71
     3
 72
    39
 73
    35
 74
     0
 42
0.0000000001
 43
0.0000000001
 40
0.0
 40
0.0
 40
0.0
 40
0.0
 40
17.98133963208149
 40
35.96416715575479
 40
53.94353992342776
 40
71.91786655367305
 40
89.89514452286816
 40
107.8785487581381
 40
125.8540793452332
 40
143.8357162912548
 40
161.8170559233368
 40
179.79988344701
 40
197.7792562146827
 40
215.7535828449282
 40
233.7308608141233
 40
251.7142650493934
 40
269.689795636488
 40
287.6714325825098
 40
305.6527722145915
 40
323.6355997382645
 40
341.6149725059374
 40
359.5892991361829
 40
377.566577105378
 40
395.549981340648
 40
413.5255119277427
 40
431.5071488737649
 40
449.4884885058464
 40
467.4713160295196
 40
485.4506887971928
 40
503.4250154274384
 40
521.4022933966334
 40
539.3856976319033
 40
557.3612282189979
 40
575.3428651650199
 40
575.3428651650199
 40
575.3428651650199
 40
575.3428651650199
 10
91.56921938165397
 20
0.00000000000054
 30
0.0
 10
91.56948691078924
 20
-5.993797758919328
 30
0.0
 10
90.38825195473783
 20
-17.98174947099955
 30
0.0
 10
85.1427980737526
 20
-35.2717548485829
 30
0.0
 10
76.62575404482413
 20
-51.20389460220588
 30
0.0
 10
65.16571066203505
 20
-65.16709423389571
 30
0.0
 10
51.20133713873838
 20
-76.62789339838412
 30
0.0
 10
35.26851210376299
 20
-85.14365339470413
 30
0.0
 10
17.97978371751196
 20
-90.38902608036612
 30
0.0
 10
-0.000052518492339
 20
-92.15914192328603
 30
0.0
 10
-17.98169311200763
 20
-90.3888055451678
 30
0.0
 10
-35.27179000819069
 20
-85.1424592335664
 30
0.0
 10
-51.20387291329189
 20
-76.62596259549684
 30
0.0
 10
-65.16710759702255
 20
-65.16558220256277
 30
0.0
 10
-76.62788516343699
 20
-51.2014162986209
 30
0.0
 10
-85.14365846745113
 20
-35.26846334126054
 30
0.0
 10
-90.38902295525986
 20
-17.97981375801263
 30
0.0
 10
-92.15914384876123
 20
0.0000710273775724
 30
0.0
 10
-90.38880435888586
 20
17.98168170872125
 30
0.0
 10
-85.14245996441059
 20
35.27179703352107
 30
0.0
 10
-76.6259621453255
 20
51.2038685859626
 30
0.0
 10
-65.16558247987814
 20
65.16711026274152
 30
0.0
 10
-51.20141612773023
 20
76.62788352073915
 30
0.0
 10
-35.26846344652859
 20
85.14365947935698
 30
0.0
 10
-17.97981369316039
 20
90.3890223318707
 30
0.0
 10
0.000070987419349
 20
92.1591442328517
 30
0.0
 10
17.98168173334034
 20
90.38880412225063
 30
0.0
 10
35.27179701835394
 20
85.14246011019793
 30
0.0
 10
51.2038685953039
 20
76.62596205552757
 30
0.0
 10
65.16716284761696
 20
65.1656314399051
 30
0.0
 10
76.62767261086992
 20
51.20128801855694
 30
0.0
 10
85.14394899013405
 20
35.26863691346529
 30
0.0
 10
90.38877489611423
 20
17.97961758881644
 30
0.0
 10
91.56877104474006
 20
5.993823343227575
 30
0.0
 10
91.56921938165397
 20
0.0000000000004832
 30
0.0
  0
SPLINE
  5
6F
330
1F
100
AcDbEntity
  8
Miura_Table_9590-01_2D
 62
     9
100
AcDbSpline
210
0.0
220
0.0
230
1.0
 70
    15
 71
     2
 72
    12
 73
     9
 74
     0
 42
0.0000000001
 43
0.0000000001
 40
0.0
 40
0.0
 40
0.0
 40
78.53981633974519
 40
78.53981633974519
 40
157.0796326794904
 40
157.0796326794904
 40
235.6194490192356
 40
235.6194490192356
 40
314.1592653589807
 40
314.1592653589807
 40
314.1592653589807
 10
50.00000000000091
 20
0.00000000000054
 30
0.0
 41
1.0
 10
50.00000000000028
 20
50.0000000000008
 30
0.0
 41
0.7071067811865476
 10
0.0
 20
50.00000000000063
 30
0.0
 41
1.0
 10
-49.99999999999988
 20
50.00000000000048
 30
0.0
 41
0.7071067811865476
 10
-50.0
 20
0.0000000000002558
 30
0.0
 41
1.0
 10
-49.99999999999988
 20
-50.0
 30
0.0
 41
0.7071067811865476
 10
0.0000000000009095
 20
-49.99999999999983
 30
0.0
 41
1.0
 10
50.00000000000028
 20
-49.99999999999967
 30
0.0
 41
0.7071067811865476
 10
50.00000000000091
 20
0.00000000000054
 30
0.0
 41
1.0
  0
SPLINE
  5
70
330
1F
100
AcDbEntity
  8
Miura_Table_9590-01_2D
100
AcDbSpline
210
0.0
220
0.0
230
1.0
 70
     8
 71
     3
 72
    12
 73
     8
 74
     0
 42
0.0000000001
 43
0.0000000001
 40
0.0
 40
0.0
 40
0.0
 40
0.0
 40
0.0890023797843848
 40
0.1797960093845599
 40
0.411193526615116
 40
0.6556287843923315
 40
0.8529811660911646
 40
0.8529811660911646
 40
0.8529811660911646
 40
0.8529811660911646
 10
-318.0662017726172
 20
851.2686683469497
 30
0.0
 10
-318.0468898106265
 20
851.2913961512941
 30
0.0
 10
-318.006096133774
 20
851.3355242125685
 30
0.0
 10
-317.8974194918601
 20
851.4197767277608
 30
0.0
 10
-317.7308983113044
 20
851.5100339111825
 30
0.0
 10
-317.5213916629509
 20
851.5918341212412
 30
0.0
 10
-317.3758726790202
 20
851.61968297514
 30
0.0
 10
-317.3099827956266
 20
851.6214667995857
 30
0.0
  0
SPLINE
  5
71
330
1F
100
AcDbEntity
  8
Miura_Table_9590-01_2D
100
AcDbSpline
210
0.0
220
0.0
230
1.0
 70
    24
 71
     2
 72
     6
 73
     3
 74
     0
 42
0.0000000001
 43
0.0000000001
 40
0.0
 40
0.0
 40
0.0
 40
0.5244495011189884
 40
0.5244495011189884
 40
0.5244495011189884
 10
-318.4097146785844
 20
850.8720123094045
 30
0.0
 10
-318.2379582256008
 20
851.070340328177
 30
0.0
 10
-318.0662017726172
 20
851.2686683469497
 30
0.0
  0
SPLINE
  5
72
330
1F
100
AcDbEntity
  8
Miura_Table_9590-01_2D
100
AcDbSpline
210
0.0
220
0.0
230
1.0
 70
     8
 71
     3
 72
    16
 73
    12
 74
     0
 42
0.0000000001
 43
0.0000000001
 40
0.0
 40
0.0
 40
0.0
 40
0.0
 40
0.1450445684408275
 40
0.2674563255525638
 40
0.5165020686838145
 40
0.7647651081847263
 40
0.9971024939488223
 40
1.19489142016583
 40
1.37708050099132
 40
1.556352254818322
 40
1.789706299665248
 40
1.789706299665248
 40
1.789706299665248
 40
1.789706299665248
 10
-318.0488297832881
 20
849.3720136683767
 30
0.0
 10
-318.088275091126
 20
849.4001553079245
 30
0.0
 10
-318.1604196263797
 20
849.4526142801187
 30
0.0
 10
-318.291020899539
 20
849.5650613498394
 30
0.0
 10
-318.429410859103
 20
849.7194146799013
 30
0.0
 10
-318.5592710913088
 20
849.9261747347286
 30
0.0
 10
-318.6414105353469
 20
850.1382231160883
 30
0.0
 10
-318.6683951449186
 20
850.3423079239781
 30
0.0
 10
-318.639026343918
 20
850.5286284447141
 30
0.0
 10
-318.5504991371681
 20
850.7081767135357
 30
0.0
 10
-318.4607475344083
 20
850.8132990360218
 30
0.0
 10
-318.4097146785844
 20
850.8720123094045
 30
0.0
  0
SPLINE
  5
73
330
1F
100
AcDbEntity
  8
Miura_Table_9590-01_2D
100
AcDbSpline
210
0.0
220
0.0
230
1.0
 70
     8
 71
     3
 72
    12
 73
     8
 74
     0
 42
0.0000000001
 43
0.0000000001
 40
0.0
 40
0.0
 40
0.0
 40
0.0
 40
2.765242495116512
 40
5.467131183712467
 40
11.12386283924205
 40
16.6939552205985
 40
22.3034199774177
 40
22.3034199774177
 40
22.3034199774177
 40
22.3034199774177
 10
-297.1833222478117
 20
842.5364813511276
 30
0.0
 10
-298.1050340361453
 20
842.5452709986714
 30
0.0
 10
-299.9266177761201
 20
842.6330804963113
 30
0.0
 10
-303.6090376534275
 20
843.0885718592856
 30
0.0
 10
-308.134566443181
 20
844.1878595602093
 30
0.0
 10
-313.3338687963796
 20
846.3436633353137
 30
0.0
 10
-316.5282660913326
 20
848.2837407528475
 30
0.0
 10
-318.0488297832881
 20
849.3720136683767
 30
0.0
  0
SPLINE
  5
74
330
1F
100
AcDbEntity
  8
Miura_Table_9590-01_2D
100
AcDbSpline
210
0.0
220
0.0
230
1.0
 70
     8
 71
     5
 72
    12
 73
     6
 74
     0
 42
0.0000000001
 43
0.0000000001
 40
-1.0
 40
-1.0
 40
-1.0
 40
-1.0
 40
-1.0
 40
-1.0
 40
0.0
 40
0.0
 40
0.0
 40
0.0
 40
0.0
 40
0.0
 10
-296.8386689540012
 20
842.5348259085729
 30
0.0
 10
-296.9076004076314
 20
842.5348320262005
 30
0.0
 10
-296.9765318465597
 20
842.5350037980891
 30
0.0
 10
-297.0454640249427
 20
842.5353327426187
 30
0.0
 10
-297.1143939279928
 20
842.5358240354192
 30
0.0
 10
-297.1833222478117
 20
842.5364813511276
 30
0.0
  0
SPLINE
  5
75
330
1F
100
AcDbEntity
  8
Miura_Table_9590-01_2D
100
AcDbSpline
210
0.0
220
0.0
230
1.0
 70
     8
 71
     3
 72
    11
 73
     7
 74
     0
 42
0.0000000001
 43
0.0000000001
 40
0.0
 40
0.0
 40
0.0
 40
0.0
 40
2.849025153143939
 40
5.681848556468799
 40
11.31563454753918
 40
22.64754464670963
 40
22.64754464670963
 40
22.64754464670963
 40
22.64754464670963
 10
-275.6288964529413
 20
849.3719355850071
 30
0.0
 10
-276.4012246918655
 20
848.8190285565493
 30
0.0
 10
-277.9838446818148
 20
847.7757174090386
 30
0.0
 10
-281.2855726812477
 20
845.9468629915493
 30
0.0
 10
-287.4072142377499
 20
843.4277394639055
 30
0.0
 10
-293.0612131077069
 20
842.5344906614946
 30
0.0
 10
-296.8386689540012
 20
842.5348259085729
 30
0.0
  0
SPLINE
  5
76
330
1F
100
AcDbEntity
  8
Miura_Table_9590-01_2D
100
AcDbSpline
210
0.0
220
0.0
230
1.0
 70
     8
 71
     3
 72
    12
 73
     8
 74
     0
 42
0.0000000001
 43
0.0000000001
 40
0.0
 40
0.0
 40
0.0
 40
0.0
 40
0.215147148445352
 40
0.4344126759933203
 40
1.014845999299492
 40
1.738325432821743
 40
2.240259627195612
 40
2.240259627195612
 40
2.240259627195612
 40
2.240259627195612
 10
-273.9688750898604
 20
850.8718195619831
 30
0.0
 10
-274.0159259474485
 20
850.8172580938126
 30
0.0
 10
-274.1117427912186
 20
850.7086292897932
 30
0.0
 10
-274.3480748802249
 20
850.4664700151673
 30
0.0
 10
-274.7200804379763
 20
850.1207197920526
 30
0.0
 10
-275.1738820248092
 20
849.7252145151399
 30
0.0
 10
-275.4920940063394
 20
849.4688129890981
 30
0.0
 10
-275.6288964529413
 20
849.3719355850071
 30
0.0
  0
SPLINE
  5
77
330
1F
100
AcDbEntity
  8
Miura_Table_9590-01_2D
100
AcDbSpline
210
0.0
220
0.0
230
1.0
 70
    24
 71
     2
 72
     6
 73
     3
 74
     0
 42
0.0000000001
 43
0.0000000001
 40
0.0
 40
0.0
 40
0.0
 40
0.5244136134753632
 40
0.5244136134753632
 40
0.5244136134753632
 10
-273.6253322211778
 20
851.2685085096864
 30
0.0
 10
-273.7971036555191
 20
851.0701640358348
 30
0.0
 10
-273.9688750898604
 20
850.8718195619831
 30
0.0
  0
SPLINE
  5
78
330
1F
100
AcDbEntity
  8
Miura_Table_9590-01_2D
100
AcDbSpline
210
0.0
220
0.0
230
1.0
 70
     8
 71
     3
 72
    13
 73
     9
 74
     0
 42
0.0000000001
 43
0.0000000001
 40
0.0
 40
0.0
 40
0.0
 40
0.0
 40
0.0842084935809858
 40
0.1523207872208179
 40
0.275918593398183
 40
0.3976132335562294
 40
0.4611173083935368
 40
0.5436834943217632
 40
0.5436834943217632
 40
0.5436834943217632
 40
0.5436834943217632
 10
-273.7942544875414
 20
851.6219808970818
 30
0.0
 10
-273.7662831383977
 20
851.6219489970183
 30
0.0
 10
-273.715119712424
 20
851.6186182727481
 30
0.0
 10
-273.6264887451425
 20
851.5934432290262
 30
0.0
 10
-273.5444355285881
 20
851.5178687263847
 30
0.0
 10
-273.5364938464672
 20
851.407898473248
 30
0.0
 10
-273.5759292986259
 20
851.326756245837
 30
0.0
 10
-273.6070800395864
 20
851.2891451020391
 30
0.0
 10
-273.6253322211778
 20
851.2685085096864
 30
0.0
  0
SPLINE
  5
79
330
1F
100
AcDbEntity
  8
Miura_Table_9590-01_2D
100
AcDbSpline
210
0.0
220
0.0
230
1.0
 70
    12
 71
     2
 72
     6
 73
     3
 74
     0
 42
0.0000000001
 43
0.0000000001
 40
0.0
 40
0.0
 40
0.0
 40
11.69797561871451
 40
11.69797561871451
 40
11.69797561871451
 10
-11.69797530693995
 20
1219.326994538168
 30
0.0
 41
1.0
 10
-5.849093833787265
 20
1219.32699450516
 30
0.0
 41
1.0
 10
-0.0002123606354871
 20
1219.326994532063
 30
0.0
 41
1.0
  0
SPLINE
  5
7A
330
1F
100
AcDbEntity
  8
Miura_Table_9590-01_2D
100
AcDbSpline
210
0.0
220
0.0
230
1.0
 70
    12
 71
     3
 72
    10
 73
     6
 74
     0
 42
0.0000000001
 43
0.0000000001
 40
-1.411401651021521
 40
-1.411401651021521
 40
-1.411401651021521
 40
-1.411401651021521
 40
-0.7080503722075561
 40
-0.7080503722075561
 40
-0.0049548029583888
 40
-0.0049548029583888
 40
-0.0049548029583888
 40
-0.0049548029583888
 10
-12.56074352844553
 20
1220.163104271469
 30
0.0
 41
1.0
 10
-12.52714964274855
 20
1219.929242533499
 30
0.0
 41
1.0
 10
-12.42319759158636
 20
1219.717257916879
 30
0.0
 41
1.0
 10
-12.10781020657396
 20
1219.410712628052
 30
0.0
 41
1.0
 10
-11.90740831737639
 20
1219.326989170178
 30
0.0
 41
1.0
 10
-11.69797530693995
 20
1219.326994538168
 30
0.0
 41
1.0
  0
SPLINE
  5
7B
330
1F
100
AcDbEntity
  8
Miura_Table_9590-01_2D
100
AcDbSpline
210
0.0
220
0.0
230
1.0
 70
     8
 71
     3
 72
    18
 73
    14
 74
     0
 42
0.0000000001
 43
0.0000000001
 40
-11.35744832993483
 40
-11.35744832993483
 40
-11.35744832993483
 40
-11.35744832993483
 40
-7.387935346890758
 40
-6.716881895257425
 40
-6.413782533532999
 40
-6.129926738348679
 40
-5.827549416049516
 40
-5.506991273313297
 40
-4.870777299577194
 40
-3.713958932632885
 40
-2.530514856758515
 40
-1.285072805565842
 40
0.0
 40
0.0
 40
0.0
 40
0.0
 10
-21.65120270755415
 20
1224.326994632278
 30
0.0
 10
-20.32802257090225
 20
1224.326883640641
 30
0.0
 10
-18.78119149766644
 20
1224.327188656671
 30
0.0
 10
-17.13327648800441
 20
1224.326840190397
 30
0.0
 10
-16.71398513425447
 20
1224.327409644079
 30
0.0
 10
-16.41738650133266
 20
1224.327742580159
 30
0.0
 10
-16.1162175253794
 20
1224.296609699031
 30
0.0
 10
-15.70452936415222
 20
1224.213117515404
 30
0.0
 10
-15.03817042510036
 20
1223.974269714041
 30
0.0
 10
-14.20254755704173
 20
1223.420795820792
 30
0.0
 10
-13.4090826156571
 20
1222.514474604106
 30
0.0
 10
-12.83340723724268
 20
1221.409145109358
 30
0.0
 10
-12.62152456793046
 20
1220.587081089942
 30
0.0
 10
-12.56074352844553
 20
1220.163104271469
 30
0.0
  0
LINE
  5
7C
330
1F
100
AcDbEntity
  8
Miura_Table_9590-01_2D
100
AcDbLine
 10
-23.85294376439197
 20
1224.327086976272
 30
0.0
 11
-21.65120270755415
 21
1224.326994632278
 31
0.0
  0
SPLINE
  5
7D
330
1F
100
AcDbEntity
  8
Miura_Table_9590-01_2D
100
AcDbSpline
210
0.0
220
0.0
230
1.0
 70
     8
 71
     3
 72
    15
 73
    11
 74
     0
 42
0.0000000001
 43
0.0000000001
 40
0.0
 40
0.0
 40
0.0
 40
0.0
 40
0.9361505302432512
 40
1.592389293923229
 40
2.107271700881924
 40
2.520270126564129
 40
2.899529664530077
 40
3.247808135525447
 40
3.588551735127004
 40
3.919177605417826
 40
3.919177605417826
 40
3.919177605417826
 40
3.919177605417826
 10
-25.12450981285383
 20
1220.916216136327
 30
0.0
 10
-25.11265364739938
 20
1221.228035430837
 30
0.0
 10
-25.09047666868719
 20
1221.758420237281
 30
0.0
 10
-25.0342341123378
 20
1222.458788347934
 30
0.0
 10
-24.95572246430311
 20
1222.981469444339
 30
0.0
 10
-24.84167179300857
 20
1223.403075116114
 30
0.0
 10
-24.67785674094284
 20
1223.748537136152
 30
0.0
 10
-24.45194335542783
 20
1224.027535214623
 30
0.0
 10
-24.17345661530635
 20
1224.227962187396
 30
0.0
 10
-23.96082343531089
 20
1224.304511445735
 30
0.0
 10
-23.85294376439197
 20
1224.327086976272
 30
0.0
  0
SPLINE
  5
7E
330
1F
100
AcDbEntity
  8
Miura_Table_9590-01_2D
100
AcDbSpline
210
0.0
220
0.0
230
1.0
 70
     8
 71
     5
 72
    12
 73
     6
 74
     0
 42
0.0000000001
 43
0.0000000001
 40
-1.0
 40
-1.0
 40
-1.0
 40
-1.0
 40
-1.0
 40
-1.0
 40
0.0
 40
0.0
 40
0.0
 40
0.0
 40
0.0
 40
0.0
 10
-25.15063961904798
 20
1220.163389766624
 30
0.0
 10
-25.14535140965927
 20
1220.313952867114
 30
0.0
 10
-25.14032381387733
 20
1220.464525121104
 30
0.0
 10
-25.13572893765649
 20
1220.61511310841
 30
0.0
 10
-25.13023399996291
 20
1220.765668980693
 30
0.0
 10
-25.12450981285383
 20
1220.916216136327
 30
0.0
  0
SPLINE
  5
7F
330
1F
100
AcDbEntity
  8
Miura_Table_9590-01_2D
100
AcDbSpline
210
0.0
220
0.0
230
1.0
 70
    12
 71
     2
 72
     6
 73
     3
 74
     0
 42
0.0000000001
 43
0.0000000001
 40
-0.3764503268402766
 40
-0.3764503268402766
 40
-0.3764503268402766
 40
0.0
 40
0.0
 40
0.0
 10
-25.16450434144917
 20
1219.787195034254
 30
0.0
 41
1.0
 10
-25.15724656110802
 20
1219.97528040706
 30
0.0
 41
0.9999985034549737
 10
-25.15063961904798
 20
1220.163389766624
 30
0.0
 41
1.0
  0
SPLINE
  5
80
330
1F
100
AcDbEntity
  8
Miura_Table_9590-01_2D
100
AcDbSpline
210
0.0
220
0.0
230
1.0
 70
    12
 71
     2
 72
     6
 73
     3
 74
     0
 42
0.0000000001
 43
0.0000000001
 40
-0.8650636015552053
 40
-0.8650636015552053
 40
-0.8650636015552053
 40
0.0
 40
0.0
 40
0.0
 10
-25.20315418998969
 20
1218.922996744617
 30
0.0
 41
0.9999999999998899
 10
-25.18245262805397
 20
1219.355034321581
 30
0.0
 41
0.9999949169942275
 10
-25.16450434144917
 20
1219.787195034254
 30
0.0
 41
1.0
  0
SPLINE
  5
81
330
1F
100
AcDbEntity
  8
Miura_Table_9590-01_2D
100
AcDbSpline
210
0.0
220
0.0
230
1.0
 70
    12
 71
     2
 72
     6
 73
     3
 74
     0
 42
0.0000000001
 43
0.0000000001
 40
0.0
 40
0.0
 40
0.0
 40
0.0174069048050353
 40
0.0174069048050353
 40
0.0174069048050353
 10
-25.20390396217408
 20
1218.905605993163
 30
0.0
 41
1.0
 10
-25.20352919290611
 20
1218.914301373836
 30
0.0
 41
0.9999999593102533
 10
-25.20315418998962
 20
1218.922996744617
 30
0.0
 41
1.0
  0
SPLINE
  5
82
330
1F
100
AcDbEntity
  8
Miura_Table_9590-01_2D
100
AcDbSpline
210
0.0
220
0.0
230
1.0
 70
    12
 71
     2
 72
     6
 73
     3
 74
     0
 42
0.0000000001
 43
0.0000000001
 40
-0.0038962172915295
 40
-0.0038962172915295
 40
-0.0038962172915295
 40
0.0
 40
0.0
 40
0.0
 10
-25.20405249918895
 20
1218.901712561023
 30
0.0
 41
1.0
 10
-25.20398985246561
 20
1218.903659776983
 30
0.0
 41
0.9999999970873399
 10
-25.20390396217408
 20
1218.905605993163
 30
0.0
 41
1.0
  0
SPLINE
  5
83
330
1F
100
AcDbEntity
  8
Miura_Table_9590-01_2D
100
AcDbSpline
210
0.0
220
0.0
230
1.0
 70
     8
 71
     3
 72
    15
 73
    11
 74
     0
 42
0.0000000001
 43
0.0000000001
 40
0.0
 40
0.0
 40
0.0
 40
0.0
 40
2.763377139235543
 40
5.271537957085918
 40
10.5998510122942
 40
21.59382453005134
 40
32.87822943471981
 40
38.64978450157577
 40
41.3966023543671
 40
44.15779849543482
 40
44.15779849543482
 40
44.15779849543482
 40
44.15779849543482
 10
-37.860585453358
 20
1177.095520912536
 30
0.0
 10
-37.37588947208224
 20
1177.878647602461
 30
0.0
 10
-36.45841320222553
 20
1179.377887964554
 30
0.0
 10
-34.73629597879062
 20
1182.46352027386
 30
0.0
 10
-31.9672753451041
 20
1188.101121875379
 30
0.0
 10
-28.75361731848079
 20
1196.74441885846
 30
0.0
 10
-26.61448722374007
 20
1205.864536836822
 30
0.0
 10
-25.69991076587849
 20
1212.404916169112
 30
0.0
 10
-25.35096906454328
 20
1216.148999901255
 30
0.0
 10
-25.24417480083048
 20
1217.98222720613
 30
0.0
 10
-25.20405249918895
 20
1218.901712561023
 30
0.0
  0
SPLINE
  5
84
330
1F
100
AcDbEntity
  8
Miura_Table_9590-01_2D
100
AcDbSpline
210
0.0
220
0.0
230
1.0
 70
     8
 71
     5
 72
    12
 73
     6
 74
     0
 42
0.0000000001
 43
0.0000000001
 40
-1.0
 40
-1.0
 40
-1.0
 40
-1.0
 40
-1.0
 40
-1.0
 40
0.0
 40
0.0
 40
0.0
 40
0.0
 40
0.0
 40
0.0
 10
-37.87721928705832
 20
1177.06857829701
 30
0.0
 10
-37.87389004900342
 20
1177.073965293592
 30
0.0
 10
-37.87056091958857
 20
1177.079352357314
 30
0.0
 10
-37.8672511782288
 20
1177.084751402576
 30
0.0
 10
-37.86391823784379
 20
1177.090136109312
 30
0.0
 10
-37.860585453358
 20
1177.095520912536
 30
0.0
  0
SPLINE
  5
85
330
1F
100
AcDbEntity
  8
Miura_Table_9590-01_2D
100
AcDbSpline
210
0.0
220
0.0
230
1.0
 70
     8
 71
     3
 72
    18
 73
    14
 74
     0
 42
0.0000000001
 43
0.0000000001
 40
0.0
 40
0.0
 40
0.0
 40
0.0
 40
1.224399517688125
 40
3.216127340650388
 40
5.359452356478953
 40
6.616257952753485
 40
8.473068222320627
 40
11.37665901709092
 40
13.15870189535763
 40
18.5887311986106
 40
21.30318735092228
 40
22.53576743944416
 40
23.95196467547641
 40
23.95196467547641
 40
23.95196467547641
 40
23.95196467547641
 10
-52.50665096721514
 20
1158.147606341409
 30
0.0
 10
-52.23975132457508
 20
1158.456378628086
 30
0.0
 10
-51.53841222842857
 20
1159.267163802678
 30
0.0
 10
-50.3702222433476
 20
1160.618807193654
 30
0.0
 10
-49.18944519123215
 20
1161.973770351687
 30
0.0
 10
-48.0390209323823
 20
1163.295596914807
 30
0.0
 10
-46.73393775429031
 20
1164.818642254496
 30
0.0
 10
-45.34309688435314
 20
1166.49866962217
 30
0.0
 10
-43.25649248572427
 20
1169.147547248638
 30
0.0
 10
-41.30113304855058
 20
1171.818285237082
 30
0.0
 10
-39.55744785552361
 20
1174.412752376001
 30
0.0
 10
-38.59092881380275
 20
1175.916763918182
 30
0.0
 10
-38.12539052080228
 20
1176.667015667425
 30
0.0
 10
-37.87721928705832
 20
1177.06857829701
 30
0.0
  0
SPLINE
  5
86
330
1F
100
AcDbEntity
  8
Miura_Table_9590-01_2D
100
AcDbSpline
210
0.0
220
0.0
230
1.0
 70
     8
 71
     5
 72
    12
 73
     6
 74
     0
 42
0.0000000001
 43
0.0000000001
 40
-1.0
 40
-1.0
 40
-1.0
 40
-1.0
 40
-1.0
 40
-1.0
 40
0.0
 40
0.0
 40
0.0
 40
0.0
 40
0.0
 40
0.0
 10
-52.54829839391095
 20
1158.099516168973
 30
0.0
 10
-52.53996893084695
 20
1158.109134222751
 30
0.0
 10
-52.53163946778295
 20
1158.118752276529
 30
0.0
 10
-52.52329182290032
 20
1158.128354599261
 30
0.0
 10
-52.51497143958022
 20
1158.13798050882
 30
0.0
 10
-52.50665096721514
 20
1158.147606341409
 30
0.0
  0
SPLINE
  5
87
330
1F
100
AcDbEntity
  8
Miura_Table_9590-01_2D
100
AcDbSpline
210
0.0
220
0.0
230
1.0
 70
    24
 71
     2
 72
     6
 73
     3
 74
     0
 42
0.0000000001
 43
0.0000000001
 40
0.0
 40
0.0
 40
0.0
 40
405.4330160665159
 40
405.4330160665159
 40
405.4330160665159
 10
-317.9659450783047
 20
851.6210336984191
 30
0.0
 10
-185.2571217361078
 20
1004.860274933696
 30
0.0
 10
-52.54829839391095
 20
1158.099516168973
 30
0.0
  0
LINE
  5
88
330
1F
100
AcDbEntity
  8
Miura_Table_9590-01_2D
100
AcDbLine
 10
-273.2978207079132
 20
851.621618305021
 30
0.0
 11
-317.9659450783047
 21
851.6210336984191
 31
0.0
  0
SPLINE
  5
89
330
1F
100
AcDbEntity
  8
Miura_Table_9590-01_2D
100
AcDbSpline
210
0.0
220
0.0
230
1.0
 70
    24
 71
     2
 72
     6
 73
     3
 74
     0
 42
0.0000000001
 43
0.0000000001
 40
0.0
 40
0.0
 40
0.0
 40
382.1184799122444
 40
382.1184799122444
 40
382.1184799122444
 10
-23.14272770193202
 20
1140.475803282256
 30
0.0
 10
-148.2202742049226
 20
996.0487107936387
 30
0.0
 10
-273.2978207079132
 20
851.621618305021
 30
0.0
  0
SPLINE
  5
8A
330
1F
100
AcDbEntity
  8
Miura_Table_9590-01_2D
100
AcDbSpline
210
0.0
220
0.0
230
1.0
 70
     8
 71
     5
 72
    12
 73
     6
 74
     0
 42
0.0000000001
 43
0.0000000001
 40
0.0
 40
0.0
 40
0.0
 40
0.0
 40
0.0
 40
0.0
 40
1.0
 40
1.0
 40
1.0
 40
1.0
 40
1.0
 40
1.0
 10
-23.12824927489419
 20
1140.492179455346
 30
0.0
 10
-23.13113593759226
 20
1140.4888962657
 30
0.0
 10
-23.13402252887681
 20
1140.485613013266
 30
0.0
 10
-23.13700374348991
 20
1140.482412739336
 30
0.0
 10
-23.13986572271097
 20
1140.479108010796
 30
0.0
 10
-23.14272770193202
 20
1140.475803282256
 30
0.0
  0
SPLINE
  5
8B
330
1F
100
AcDbEntity
  8
Miura_Table_9590-01_2D
100
AcDbSpline
210
0.0
220
0.0
230
1.0
 70
     8
 71
     3
 72
    15
 73
    11
 74
     0
 42
0.0000000001
 43
0.0000000001
 40
0.0
 40
0.0
 40
0.0
 40
0.0
 40
0.8793827298841641
 40
1.776264706140459
 40
3.639233357410877
 40
7.666287083349559
 40
9.953021317401364
 40
12.30992601284868
 40
14.68355992114336
 40
17.32695060162204
 40
17.32695060162204
 40
17.32695060162204
 40
17.32695060162204
 10
-10.20852652435224
 20
1151.928718948034
 30
0.0
 10
-10.46186959024999
 20
1151.781429419517
 30
0.0
 10
-10.96997610886046
 20
1151.476892777898
 30
0.0
 10
-11.99016867559385
 20
1150.82105444762
 30
0.0
 10
-13.84445955659885
 20
1149.52224527112
 30
0.0
 10
-15.94418193196543
 20
1147.780808620852
 30
0.0
 10
-18.07419058122559
 20
1145.826960788691
 30
0.0
 10
-19.73867716786663
 20
1144.182889680103
 30
0.0
 10
-21.43544190133343
 20
1142.404197241992
 30
0.0
 10
-22.54647285941246
 20
1141.15387169426
 30
0.0
 10
-23.12824927489419
 20
1140.492179455346
 30
0.0
  0
SPLINE
  5
8C
330
1F
100
AcDbEntity
  8
Miura_Table_9590-01_2D
100
AcDbSpline
210
0.0
220
0.0
230
1.0
 70
    12
 71
     2
 72
     6
 73
     3
 74
     0
 42
0.0000000001
 43
0.0000000001
 40
-0.1469556320606097
 40
-0.1469556320606097
 40
-0.1469556320606097
 40
0.0
 40
0.0
 40
0.0
 10
-10.0816587570198
 20
1152.002884242751
 30
0.0
 41
1.0
 10
-10.14499973390198
 20
1151.965642705613
 30
0.0
 41
0.9999969449633207
 10
-10.20852652435224
 20
1151.928718948034
 30
0.0
 41
1.0
  0
SPLINE
  5
8D
330
1F
100
AcDbEntity
  8
Miura_Table_9590-01_2D
100
AcDbSpline
210
0.0
220
0.0
230
1.0
 70
     8
 71
     5
 72
    12
 73
     6
 74
     0
 42
0.0000000001
 43
0.0000000001
 40
0.0
 40
0.0
 40
0.0
 40
0.0
 40
0.0
 40
0.0
 40
1.0
 40
1.0
 40
1.0
 40
1.0
 40
1.0
 40
1.0
 10
-10.06502878969332
 20
1152.012653735302
 30
0.0
 10
-10.06835569933264
 20
1152.010701397173
 30
0.0
 10
-10.0716821580445
 20
1152.008748290635
 30
0.0
 10
-10.07500851569785
 20
1152.006795009738
 30
0.0
 10
-10.07833347566611
 20
1152.004839352936
 30
0.0
 10
-10.0816587570198
 20
1152.002884242751
 30
0.0
  0
SPLINE
  5
8E
330
1F
100
AcDbEntity
  8
Miura_Table_9590-01_2D
100
AcDbSpline
210
0.0
220
0.0
230
1.0
 70
    12
 71
     2
 72
     6
 73
     3
 74
     0
 42
0.0000000001
 43
0.0000000001
 40
-1.059455396730206
 40
-1.059455396730206
 40
-1.059455396730206
 40
0.0
 40
0.0
 40
0.0
 10
-9.138077268464258
 20
1152.525455586405
 30
0.0
 41
1.0
 10
-9.608060415222637
 20
1152.280817550305
 30
0.0
 41
0.9996780901699671
 10
-10.06502878969332
 20
1152.012653735302
 30
0.0
 41
1.0
  0
SPLINE
  5
8F
330
1F
100
AcDbEntity
  8
Miura_Table_9590-01_2D
100
AcDbSpline
210
0.0
220
0.0
230
1.0
 70
     8
 71
     5
 72
    12
 73
     6
 74
     0
 42
0.0000000001
 43
0.0000000001
 40
-1.0
 40
-1.0
 40
-1.0
 40
-1.0
 40
-1.0
 40
-1.0
 40
0.0
 40
0.0
 40
0.0
 40
0.0
 40
0.0
 40
0.0
 10
-7.886179101621565
 20
1153.124889304096
 30
0.0
 10
-8.140460587838788
 20
1153.013517324456
 30
0.0
 10
-8.392919921901921
 20
1152.897985056389
 30
0.0
 10
-8.643466636982339
 20
1152.777710977502
 30
0.0
 10
-8.89183718403092
 20
1152.653629737075
 30
0.0
 10
-9.138077268464258
 20
1152.525455586405
 30
0.0
  0
SPLINE
  5
90
330
1F
100
AcDbEntity
  8
Miura_Table_9590-01_2D
100
AcDbSpline
210
0.0
220
0.0
230
1.0
 70
     8
 71
     3
 72
    11
 73
     7
 74
     0
 42
0.0000000001
 43
0.0000000001
 40
-7.168114128633167
 40
-7.168114128633167
 40
-7.168114128633167
 40
-7.168114128633167
 40
-3.620644636221537
 40
-1.83413863357669
 40
-0.9078897846316704
 40
0.0
 40
0.0
 40
0.0
 40
0.0
 10
-0.9518539976625107
 20
1154.778619269701
 30
0.0
 10
-2.132894659215708
 20
1154.719085719586
 30
0.0
 10
-3.900065845601603
 20
1154.464652740172
 30
0.0
 10
-5.907992042350998
 20
1153.888811215282
 30
0.0
 10
-7.043673125822352
 20
1153.479611759306
 30
0.0
 10
-7.608985579817272
 20
1153.246296456956
 30
0.0
 10
-7.886179101621565
 20
1153.124889304096
 30
0.0
  0
SPLINE
  5
91
330
1F
100
AcDbEntity
  8
Miura_Table_9590-01_2D
100
AcDbSpline
210
0.0
220
0.0
230
1.0
 70
    12
 71
     2
 72
     6
 73
     3
 74
     0
 42
0.0000000001
 43
0.0000000001
 40
0.0
 40
0.0
 40
0.0
 40
1.522042370303902
 40
1.522042370303902
 40
1.522042370303902
 10
-0.0002123606356052
 20
1155.776716860787
 30
0.0
 41
0.9999999691280613
 10
-0.0003450956886074
 20
1154.824120623474
 30
0.0
 41
0.7239225688158022
 10
-0.9518539976625107
 20
1154.778619269701
 30
0.0
 41
1.0
  0
SPLINE
  5
92
330
1F
100
AcDbEntity
  8
Miura_Table_9590-01_2D
100
AcDbSpline
210
0.0
220
0.0
230
1.0
 70
    12
 71
     2
 72
     6
 73
     3
 74
     0
 42
0.0000000001
 43
0.0000000001
 40
-1.522042370303902
 40
-1.522042370303902
 40
-1.522042370303902
 40
0.0
 40
0.0
 40
0.0
 10
0.9514292763915364
 20
1154.778619269701
 30
0.0
 41
1.0
 10
-0.0000796255818667
 20
1154.824120623474
 30
0.0
 41
0.7239225688158022
 10
-0.0002123606356052
 20
1155.776716860787
 30
0.0
 41
0.9999999691280613
  0
SPLINE
  5
93
330
1F
100
AcDbEntity
  8
Miura_Table_9590-01_2D
100
AcDbSpline
210
0.0
220
0.0
230
1.0
 70
     8
 71
     3
 72
    11
 73
     7
 74
     0
 42
0.0000000001
 43
0.0000000001
 40
0.0
 40
0.0
 40
0.0
 40
0.0
 40
0.9078897846316704
 40
1.83413863357669
 40
3.620644636221537
 40
7.168114128633167
 40
7.168114128633167
 40
7.168114128633167
 40
7.168114128633167
 10
7.885754380350591
 20
1153.124889304096
 30
0.0
 10
7.608560858546298
 20
1153.246296456956
 30
0.0
 10
7.043248404551377
 20
1153.479611759306
 30
0.0
 10
5.907567321080023
 20
1153.888811215282
 30
0.0
 10
3.899641124330628
 20
1154.464652740172
 30
0.0
 10
2.132469937944734
 20
1154.719085719586
 30
0.0
 10
0.9514292763915364
 20
1154.778619269701
 30
0.0
  0
SPLINE
  5
94
330
1F
100
AcDbEntity
  8
Miura_Table_9590-01_2D
100
AcDbSpline
210
0.0
220
0.0
230
1.0
 70
     8
 71
     5
 72
    12
 73
     6
 74
     0
 42
0.0000000001
 43
0.0000000001
 40
0.0
 40
0.0
 40
0.0
 40
0.0
 40
0.0
 40
0.0
 40
1.0
 40
1.0
 40
1.0
 40
1.0
 40
1.0
 40
1.0
 10
9.137652547193284
 20
1152.525455586405
 30
0.0
 10
8.891412462759945
 20
1152.653629737075
 30
0.0
 10
8.643041915711365
 20
1152.777710977502
 30
0.0
 10
8.392495200630947
 20
1152.897985056389
 30
0.0
 10
8.140035866567814
 20
1153.013517324456
 30
0.0
 10
7.885754380350591
 20
1153.124889304096
 30
0.0
  0
SPLINE
  5
95
330
1F
100
AcDbEntity
  8
Miura_Table_9590-01_2D
100
AcDbSpline
210
0.0
220
0.0
230
1.0
 70
    12
 71
     2
 72
     6
 73
     3
 74
     0
 42
0.0000000001
 43
0.0000000001
 40
0.0
 40
0.0
 40
0.0
 40
1.059455396730206
 40
1.059455396730206
 40
1.059455396730206
 10
10.06460406842234
 20
1152.012653735302
 30
0.0
 41
1.0
 10
9.60763569395128
 20
1152.280817550305
 30
0.0
 41
0.9996780901699671
 10
9.137652547193284
 20
1152.525455586405
 30
0.0
 41
1.0
  0
SPLINE
  5
96
330
1F
100
AcDbEntity
  8
Miura_Table_9590-01_2D
100
AcDbSpline
210
0.0
220
0.0
230
1.0
 70
     8
 71
     5
 72
    12
 73
     6
 74
     0
 42
0.0000000001
 43
0.0000000001
 40
-1.0
 40
-1.0
 40
-1.0
 40
-1.0
 40
-1.0
 40
-1.0
 40
0.0
 40
0.0
 40
0.0
 40
0.0
 40
0.0
 40
0.0
 10
10.08123403574882
 20
1152.002884242751
 30
0.0
 10
10.07790875439514
 20
1152.004839352936
 30
0.0
 10
10.07458379442687
 20
1152.006795009738
 30
0.0
 10
10.07125743677352
 20
1152.008748290635
 30
0.0
 10
10.06793097806167
 20
1152.010701397173
 30
0.0
 10
10.06460406842234
 20
1152.012653735302
 30
0.0
  0
SPLINE
  5
97
330
1F
100
AcDbEntity
  8
Miura_Table_9590-01_2D
100
AcDbSpline
210
0.0
220
0.0
230
1.0
 70
    12
 71
     2
 72
     6
 73
     3
 74
     0
 42
0.0000000001
 43
0.0000000001
 40
0.0
 40
0.0
 40
0.0
 40
0.1469556320606097
 40
0.1469556320606097
 40
0.1469556320606097
 10
10.20810180308126
 20
1151.928718948034
 30
0.0
 41
1.0
 10
10.14457501263129
 20
1151.965642705613
 30
0.0
 41
0.9999969449633207
 10
10.08123403574882
 20
1152.002884242751
 30
0.0
 41
1.0
  0
SPLINE
  5
98
330
1F
100
AcDbEntity
  8
Miura_Table_9590-01_2D
100
AcDbSpline
210
0.0
220
0.0
230
1.0
 70
     8
 71
     3
 72
    15
 73
    11
 74
     0
 42
0.0000000001
 43
0.0000000001
 40
-17.32695060162204
 40
-17.32695060162204
 40
-17.32695060162204
 40
-17.32695060162204
 40
-14.68355992114336
 40
-12.30992601284868
 40
-9.953021317401364
 40
-7.666287083349559
 40
-3.639233357410877
 40
-1.776264706140459
 40
-0.8793827298841641
 40
0.0
 40
0.0
 40
0.0
 40
0.0
 10
23.12782455362321
 20
1140.492179455346
 30
0.0
 10
22.54604813814149
 20
1141.15387169426
 30
0.0
 10
21.43501718006246
 20
1142.404197241992
 30
0.0
 10
19.73825244659565
 20
1144.182889680103
 30
0.0
 10
18.07376585995462
 20
1145.826960788691
 30
0.0
 10
15.94375721069446
 20
1147.780808620852
 30
0.0
 10
13.84403483532788
 20
1149.52224527112
 30
0.0
 10
11.98974395432288
 20
1150.82105444762
 30
0.0
 10
10.96955138758949
 20
1151.476892777898
 30
0.0
 10
10.46144486897902
 20
1151.781429419517
 30
0.0
 10
10.20810180308126
 20
1151.928718948034
 30
0.0
  0
SPLINE
  5
99
330
1F
100
AcDbEntity
  8
Miura_Table_9590-01_2D
100
AcDbSpline
210
0.0
220
0.0
230
1.0
 70
     8
 71
     5
 72
    12
 73
     6
 74
     0
 42
0.0000000001
 43
0.0000000001
 40
-1.0
 40
-1.0
 40
-1.0
 40
-1.0
 40
-1.0
 40
-1.0
 40
0.0
 40
0.0
 40
0.0
 40
0.0
 40
0.0
 40
0.0
 10
23.14230298066104
 20
1140.475803282256
 30
0.0
 10
23.13944100143999
 20
1140.479108010796
 30
0.0
 10
23.13657902221894
 20
1140.482412739336
 30
0.0
 10
23.13359780760584
 20
1140.485613013266
 30
0.0
 10
23.13071121632129
 20
1140.4888962657
 30
0.0
 10
23.12782455362321
 20
1140.492179455346
 30
0.0
  0
SPLINE
  5
9A
330
1F
100
AcDbEntity
  8
Miura_Table_9590-01_2D
100
AcDbSpline
210
0.0
220
0.0
230
1.0
 70
    24
 71
     2
 72
     6
 73
     3
 74
     0
 42
0.0000000001
 43
0.0000000001
 40
-382.1184799122444
 40
-382.1184799122444
 40
-382.1184799122444
 40
0.0
 40
0.0
 40
0.0
 10
273.2973959866422
 20
851.621618305021
 30
0.0
 10
148.2198494836516
 20
996.0487107936387
 30
0.0
 10
23.14230298066104
 20
1140.475803282256
 30
0.0
  0
LINE
  5
9B
330
1F
100
AcDbEntity
  8
Miura_Table_9590-01_2D
100
AcDbLine
 10
317.9655203570337
 20
851.6210336984191
 30
0.0
 11
273.2973959866422
 21
851.621618305021
 31
0.0
  0
SPLINE
  5
9C
330
1F
100
AcDbEntity
  8
Miura_Table_9590-01_2D
100
AcDbSpline
210
0.0
220
0.0
230
1.0
 70
    24
 71
     2
 72
     6
 73
     3
 74
     0
 42
0.0000000001
 43
0.0000000001
 40
-405.4330160665159
 40
-405.4330160665159
 40
-405.4330160665159
 40
0.0
 40
0.0
 40
0.0
 10
52.54787367263998
 20
1158.099516168973
 30
0.0
 10
185.2566970148368
 20
1004.860274933696
 30
0.0
 10
317.9655203570337
 20
851.6210336984191
 30
0.0
  0
SPLINE
  5
9D
330
1F
100
AcDbEntity
  8
Miura_Table_9590-01_2D
100
AcDbSpline
210
0.0
220
0.0
230
1.0
 70
     8
 71
     5
 72
    12
 73
     6
 74
     0
 42
0.0000000001
 43
0.0000000001
 40
0.0
 40
0.0
 40
0.0
 40
0.0
 40
0.0
 40
0.0
 40
1.0
 40
1.0
 40
1.0
 40
1.0
 40
1.0
 40
1.0
 10
52.50622624594416
 20
1158.147606341409
 30
0.0
 10
52.51454671830925
 20
1158.13798050882
 30
0.0
 10
52.52286710162934
 20
1158.128354599261
 30
0.0
 10
52.53121474651198
 20
1158.118752276529
 30
0.0
 10
52.53954420957598
 20
1158.109134222751
 30
0.0
 10
52.54787367263998
 20
1158.099516168973
 30
0.0
  0
SPLINE
  5
9E
330
1F
100
AcDbEntity
  8
Miura_Table_9590-01_2D
100
AcDbSpline
210
0.0
220
0.0
230
1.0
 70
     8
 71
     3
 72
    18
 73
    14
 74
     0
 42
0.0000000001
 43
0.0000000001
 40
-23.95196467547641
 40
-23.95196467547641
 40
-23.95196467547641
 40
-23.95196467547641
 40
-22.53576743944416
 40
-21.30318735092228
 40
-18.5887311986106
 40
-13.15870189535763
 40
-11.37665901709092
 40
-8.473068222320627
 40
-6.616257952753485
 40
-5.359452356478953
 40
-3.216127340650388
 40
-1.224399517688125
 40
0.0
 40
0.0
 40
0.0
 40
0.0
 10
37.87679456578735
 20
1177.06857829701
 30
0.0
 10
38.12496579953131
 20
1176.667015667425
 30
0.0
 10
38.59050409253177
 20
1175.916763918182
 30
0.0
 10
39.55702313425263
 20
1174.412752376001
 30
0.0
 10
41.30070832727961
 20
1171.818285237082
 30
0.0
 10
43.25606776445329
 20
1169.147547248638
 30
0.0
 10
45.34267216308217
 20
1166.49866962217
 30
0.0
 10
46.73351303301934
 20
1164.818642254496
 30
0.0
 10
48.03859621111133
 20
1163.295596914807
 30
0.0
 10
49.18902046996118
 20
1161.973770351687
 30
0.0
 10
50.36979752207662
 20
1160.618807193654
 30
0.0
 10
51.5379875071576
 20
1159.267163802678
 30
0.0
 10
52.23932660330411
 20
1158.456378628086
 30
0.0
 10
52.50622624594416
 20
1158.147606341409
 30
0.0
  0
SPLINE
  5
9F
330
1F
100
AcDbEntity
  8
Miura_Table_9590-01_2D
100
AcDbSpline
210
0.0
220
0.0
230
1.0
 70
     8
 71
     5
 72
    12
 73
     6
 74
     0
 42
0.0000000001
 43
0.0000000001
 40
0.0
 40
0.0
 40
0.0
 40
0.0
 40
0.0
 40
0.0
 40
1.0
 40
1.0
 40
1.0
 40
1.0
 40
1.0
 40
1.0
 10
37.86016073208702
 20
1177.095520912536
 30
0.0
 10
37.86349351657282
 20
1177.090136109312
 30
0.0
 10
37.86682645695782
 20
1177.084751402576
 30
0.0
 10
37.8701361983176
 20
1177.079352357314
 30
0.0
 10
37.87346532773245
 20
1177.073965293592
 30
0.0
 10
37.87679456578735
 20
1177.06857829701
 30
0.0
  0
SPLINE
  5
A0
330
1F
100
AcDbEntity
  8
Miura_Table_9590-01_2D
100
AcDbSpline
210
0.0
220
0.0
230
1.0
 70
     8
 71
     3
 72
    15
 73
    11
 74
     0
 42
0.0000000001
 43
0.0000000001
 40
-44.15779849543482
 40
-44.15779849543482
 40
-44.15779849543482
 40
-44.15779849543482
 40
-41.3966023543671
 40
-38.64978450157577
 40
-32.87822943471981
 40
-21.59382453005134
 40
-10.5998510122942
 40
-5.271537957085918
 40
-2.763377139235543
 40
0.0
 40
0.0
 40
0.0
 40
0.0
 10
25.20362777791797
 20
1218.901712561023
 30
0.0
 10
25.2437500795595
 20
1217.98222720613
 30
0.0
 10
25.3505443432723
 20
1216.148999901255
 30
0.0
 10
25.69948604460751
 20
1212.404916169112
 30
0.0
 10
26.6140625024691
 20
1205.864536836822
 30
0.0
 10
28.75319259720982
 20
1196.74441885846
 30
0.0
 10
31.96685062383312
 20
1188.101121875379
 30
0.0
 10
34.73587125751965
 20
1182.46352027386
 30
0.0
 10
36.45798848095455
 20
1179.377887964554
 30
0.0
 10
37.37546475081126
 20
1177.878647602461
 30
0.0
 10
37.86016073208702
 20
1177.095520912536
 30
0.0
  0
SPLINE
  5
A1
330
1F
100
AcDbEntity
  8
Miura_Table_9590-01_2D
100
AcDbSpline
210
0.0
220
0.0
230
1.0
 70
    12
 71
     2
 72
     6
 73
     3
 74
     0
 42
0.0000000001
 43
0.0000000001
 40
0.0
 40
0.0
 40
0.0
 40
0.0038962172915295
 40
0.0038962172915295
 40
0.0038962172915295
 10
25.20347924090311
 20
1218.905605993163
 30
0.0
 41
1.0
 10
25.20356513119452
 20
1218.903659776983
 30
0.0
 41
0.9999999970873399
 10
25.20362777791797
 20
1218.901712561023
 30
0.0
 41
1.0
  0
SPLINE
  5
A2
330
1F
100
AcDbEntity
  8
Miura_Table_9590-01_2D
100
AcDbSpline
210
0.0
220
0.0
230
1.0
 70
    12
 71
     2
 72
     6
 73
     3
 74
     0
 42
0.0000000001
 43
0.0000000001
 40
-0.0174069048050353
 40
-0.0174069048050353
 40
-0.0174069048050353
 40
0.0
 40
0.0
 40
0.0
 10
25.20272946871864
 20
1218.922996744617
 30
0.0
 41
1.0
 10
25.20310447163471
 20
1218.914301373836
 30
0.0
 41
0.9999999593102533
 10
25.20347924090311
 20
1218.905605993163
 30
0.0
 41
1.0
  0
SPLINE
  5
A3
330
1F
100
AcDbEntity
  8
Miura_Table_9590-01_2D
100
AcDbSpline
210
0.0
220
0.0
230
1.0
 70
    12
 71
     2
 72
     6
 73
     3
 74
     0
 42
0.0000000001
 43
0.0000000001
 40
0.0
 40
0.0
 40
0.0
 40
0.8650636015552053
 40
0.8650636015552053
 40
0.8650636015552053
 10
25.1640796201782
 20
1219.787195034254
 30
0.0
 41
1.0
 10
25.18202790678284
 20
1219.355034321581
 30
0.0
 41
0.9999949169942275
 10
25.20272946871867
 20
1218.922996744617
 30
0.0
 41
0.9999999999998899
  0
SPLINE
  5
A4
330
1F
100
AcDbEntity
  8
Miura_Table_9590-01_2D
100
AcDbSpline
210
0.0
220
0.0
230
1.0
 70
    12
 71
     2
 72
     6
 73
     3
 74
     0
 42
0.0000000001
 43
0.0000000001
 40
0.0
 40
0.0
 40
0.0
 40
0.3764503268402766
 40
0.3764503268402766
 40
0.3764503268402766
 10
25.150214897777
 20
1220.163389766624
 30
0.0
 41
1.0
 10
25.15682183983749
 20
1219.97528040706
 30
0.0
 41
0.9999985034549737
 10
25.1640796201782
 20
1219.787195034254
 30
0.0
 41
1.0
  0
SPLINE
  5
A5
330
1F
100
AcDbEntity
  8
Miura_Table_9590-01_2D
100
AcDbSpline
210
0.0
220
0.0
230
1.0
 70
     8
 71
     5
 72
    12
 73
     6
 74
     0
 42
0.0000000001
 43
0.0000000001
 40
0.0
 40
0.0
 40
0.0
 40
0.0
 40
0.0
 40
0.0
 40
1.0
 40
1.0
 40
1.0
 40
1.0
 40
1.0
 40
1.0
 10
25.12408509158286
 20
1220.916216136327
 30
0.0
 10
25.12980927869194
 20
1220.765668980693
 30
0.0
 10
25.13530421638552
 20
1220.61511310841
 30
0.0
 10
25.13989909260636
 20
1220.464525121104
 30
0.0
 10
25.1449266883883
 20
1220.313952867114
 30
0.0
 10
25.150214897777
 20
1220.163389766624
 30
0.0
  0
SPLINE
  5
A6
330
1F
100
AcDbEntity
  8
Miura_Table_9590-01_2D
100
AcDbSpline
210
0.0
220
0.0
230
1.0
 70
     8
 71
     3
 72
    15
 73
    11
 74
     0
 42
0.0000000001
 43
0.0000000001
 40
-3.919177605417826
 40
-3.919177605417826
 40
-3.919177605417826
 40
-3.919177605417826
 40
-3.588551735127004
 40
-3.247808135525447
 40
-2.899529664530077
 40
-2.520270126564129
 40
-2.107271700881924
 40
-1.592389293923229
 40
-0.9361505302432512
 40
0.0
 40
0.0
 40
0.0
 40
0.0
 10
23.85251904312099
 20
1224.327086976272
 30
0.0
 10
23.96039871403991
 20
1224.304511445735
 30
0.0
 10
24.17303189403538
 20
1224.227962187396
 30
0.0
 10
24.45151863415686
 20
1224.027535214623
 30
0.0
 10
24.67743201967187
 20
1223.748537136152
 30
0.0
 10
24.8412470717376
 20
1223.403075116114
 30
0.0
 10
24.95529774303213
 20
1222.981469444339
 30
0.0
 10
25.03380939106682
 20
1222.458788347934
 30
0.0
 10
25.09005194741621
 20
1221.758420237281
 30
0.0
 10
25.11222892612841
 20
1221.228035430837
 30
0.0
 10
25.12408509158286
 20
1220.916216136327
 30
0.0
  0
LINE
  5
A7
330
1F
100
AcDbEntity
  8
Miura_Table_9590-01_2D
100
AcDbLine
 10
21.65077798628317
 20
1224.326994632278
 30
0.0
 11
23.85251904312099
 21
1224.327086976272
 31
0.0
  0
SPLINE
  5
A8
330
1F
100
AcDbEntity
  8
Miura_Table_9590-01_2D
100
AcDbSpline
210
0.0
220
0.0
230
1.0
 70
     8
 71
     3
 72
    18
 73
    14
 74
     0
 42
0.0000000001
 43
0.0000000001
 40
0.0
 40
0.0
 40
0.0
 40
0.0
 40
1.285072805565842
 40
2.530514856758515
 40
3.713958932632885
 40
4.870777299577194
 40
5.506991273313297
 40
5.827549416049516
 40
6.129926738348679
 40
6.413782533532999
 40
6.716881895257425
 40
7.387935346890758
 40
11.35744832993483
 40
11.35744832993483
 40
11.35744832993483
 40
11.35744832993483
 10
12.56031880717455
 20
1220.163104271469
 30
0.0
 10
12.62109984665949
 20
1220.587081089942
 30
0.0
 10
12.83298251597171
 20
1221.409145109358
 30
0.0
 10
13.40865789438612
 20
1222.514474604106
 30
0.0
 10
14.20212283577075
 20
1223.420795820792
 30
0.0
 10
15.03774570382939
 20
1223.974269714041
 30
0.0
 10
15.70410464288125
 20
1224.213117515404
 30
0.0
 10
16.11579280410842
 20
1224.296609699031
 30
0.0
 10
16.41696178006168
 20
1224.327742580159
 30
0.0
 10
16.7135604129835
 20
1224.327409644079
 30
0.0
 10
17.13285176673344
 20
1224.326840190397
 30
0.0
 10
18.78076677639547
 20
1224.327188656671
 30
0.0
 10
20.32759784963127
 20
1224.326883640641
 30
0.0
 10
21.65077798628317
 20
1224.326994632278
 30
0.0
  0
SPLINE
  5
A9
330
1F
100
AcDbEntity
  8
Miura_Table_9590-01_2D
100
AcDbSpline
210
0.0
220
0.0
230
1.0
 70
    12
 71
     3
 72
    10
 73
     6
 74
     0
 42
0.0000000001
 43
0.0000000001
 40
0.0049548029583888
 40
0.0049548029583888
 40
0.0049548029583888
 40
0.0049548029583888
 40
0.7080503722075561
 40
0.7080503722075561
 40
1.411401651021521
 40
1.411401651021521
 40
1.411401651021521
 40
1.411401651021521
 10
11.69755058566898
 20
1219.326994538168
 30
0.0
 41
1.0
 10
11.90698359610542
 20
1219.326989170178
 30
0.0
 41
1.0
 10
12.10738548530298
 20
1219.410712628052
 30
0.0
 41
1.0
 10
12.42277287031538
 20
1219.717257916879
 30
0.0
 41
1.0
 10
12.52672492147758
 20
1219.929242533499
 30
0.0
 41
1.0
 10
12.56031880717455
 20
1220.163104271469
 30
0.0
 41
1.0
  0
SPLINE
  5
AA
330
1F
100
AcDbEntity
  8
Miura_Table_9590-01_2D
100
AcDbSpline
210
0.0
220
0.0
230
1.0
 70
    12
 71
     2
 72
     6
 73
     3
 74
     0
 42
0.0000000001
 43
0.0000000001
 40
-11.69797561871451
 40
-11.69797561871451
 40
-11.69797561871451
 40
0.0
 40
0.0
 40
0.0
 10
-0.0002123606354871
 20
1219.326994532063
 30
0.0
 41
1.0
 10
5.848669112516291
 20
1219.32699450516
 30
0.0
 41
1.0
 10
11.69755058566898
 20
1219.326994538168
 30
0.0
 41
1.0
  0
SPLINE
  5
AB
330
1F
100
AcDbEntity
  8
Miura_Table_9590-01_2D
100
AcDbSpline
210
0.0
220
0.0
230
1.0
 70
    24
 71
     2
 72
     6
 73
     3
 74
     0
 42
0.0000000001
 43
0.0000000001
 40
0.0
 40
0.0
 40
0.0
 40
286.5590223823228
 40
286.5590223823228
 40
286.5590223823228
 10
-25.13000084797841
 20
851.6220755268519
 30
0.0
 10
-25.13000084797841
 20
994.9015867180133
 30
0.0
 10
-25.13000084797841
 20
1138.181097909175
 30
0.0
  0
LINE
  5
AC
330
1F
100
AcDbEntity
  8
Miura_Table_9590-01_2D
100
AcDbLine
 10
25.13000147152798
 20
851.6220755268519
 30
0.0
 11
-25.13000084797841
 21
851.6220755268519
 31
0.0
  0
SPLINE
  5
AD
330
1F
100
AcDbEntity
  8
Miura_Table_9590-01_2D
100
AcDbSpline
210
0.0
220
0.0
230
1.0
 70
    24
 71
     2
 72
     6
 73
     3
 74
     0
 42
0.0000000001
 43
0.0000000001
 40
0.0
 40
0.0
 40
0.0
 40
286.5590223823231
 40
286.5590223823231
 40
286.5590223823231
 10
25.13000147152798
 20
1138.181097909175
 30
0.0
 10
25.13000147152798
 20
994.9015867180135
 30
0.0
 10
25.13000147152798
 20
851.6220755268519
 30
0.0
  0
SPLINE
  5
AE
330
1F
100
AcDbEntity
  8
Miura_Table_9590-01_2D
100
AcDbSpline
210
0.0
220
0.0
230
1.0
 70
     8
 71
     3
 72
    12
 73
     8
 74
     0
 42
0.0000000001
 43
0.0000000001
 40
0.0
 40
0.0
 40
0.0
 40
0.0
 40
0.0709674213477591
 40
0.1335862693837825
 40
0.2813937667596485
 40
0.4525062216997117
 40
0.627356896276153
 40
0.627356896276153
 40
0.627356896276153
 40
0.627356896276153
 10
-25.00001845605311
 20
851.268522058851
 30
0.0
 10
-25.00012779214467
 20
851.2921408537779
 30
0.0
 10
-24.99914452395751
 20
851.3369966838084
 30
0.0
 10
-24.96723534956527
 20
851.4267765539714
 30
0.0
 10
-24.87928072717568
 20
851.5222286973162
 30
0.0
 10
-24.732417578286
 20
851.6009369283679
 30
0.0
 10
-24.61702595617407
 20
851.6198691522154
 30
0.0
 10
-24.55885293653046
 20
851.6213497715621
 30
0.0
  0
SPLINE
  5
AF
330
1F
100
AcDbEntity
  8
Miura_Table_9590-01_2D
100
AcDbSpline
210
0.0
220
0.0
230
1.0
 70
    24
 71
     2
 72
     6
 73
     3
 74
     0
 42
0.0000000001
 43
0.0000000001
 40
0.0
 40
0.0
 40
0.0
 40
0.3964465280207605
 40
0.3964465280207605
 40
0.3964465280207605
 10
-24.99999168985505
 20
850.8720755310076
 30
0.0
 10
-25.00000507295408
 20
851.0702987949293
 30
0.0
 10
-25.00001845605311
 20
851.268522058851
 30
0.0
  0
SPLINE
  5
B0
330
1F
100
AcDbEntity
  8
Miura_Table_9590-01_2D
100
AcDbSpline
210
0.0
220
0.0
230
1.0
 70
     8
 71
     3
 72
    17
 73
    13
 74
     0
 42
0.0000000001
 43
0.0000000001
 40
0.0
 40
0.0
 40
0.0
 40
0.0
 40
0.1433371388019954
 40
0.2741217048581911
 40
0.5698915548391688
 40
0.8911637673394632
 40
1.191151497005835
 40
1.428512647803872
 40
1.628463248151064
 40
1.79281401023468
 40
1.87084582755943
 40
1.966221106772802
 40
1.966221106772802
 40
1.966221106772802
 40
1.966221106772802
 10
-23.83922918809458
 20
849.371716356974
 30
0.0
 10
-23.8803556190951
 20
849.3973309921594
 30
0.0
 10
-23.95751269938955
 20
849.4463343266129
 30
0.0
 10
-24.11165639704541
 20
849.5575085165412
 30
0.0
 10
-24.30244871973537
 20
849.7183021163032
 30
0.0
 10
-24.52043363332905
 20
849.9328703975689
 30
0.0
 10
-24.70789076932579
 20
850.1495623330075
 30
0.0
 10
-24.84985039086769
 20
850.3505602736884
 30
0.0
 10
-24.94381514257748
 20
850.5284639610907
 30
0.0
 10
-24.98705086623158
 20
850.6702963683558
 30
0.0
 10
-24.99963398884302
 20
850.7824814830738
 30
0.0
 10
-25.0000926806606
 20
850.8402586620734
 30
0.0
 10
-24.99999168985505
 20
850.8720755310076
 30
0.0
  0
SPLINE
  5
B1
330
1F
100
AcDbEntity
  8
Miura_Table_9590-01_2D
100
AcDbSpline
210
0.0
220
0.0
230
1.0
 70
     8
 71
     3
 72
    24
 73
    20
 74
     0
 42
0.0000000001
 43
0.0000000001
 40
0.0
 40
0.0
 40
0.0
 40
0.0
 40
0.0020036009973828
 40
0.0022547111946161
 40
0.0025058213907338
 40
0.0056257993892326
 40
0.0112405324588038
 40
0.0196887687594485
 40
0.0391810618505631
 40
0.0782064054519545
 40
0.1883614775428985
 40
0.3719392572588333
 40
0.7758219388728826
 40
1.546888493387028
 40
3.125770128814666
 40
6.302017912357493
 40
12.52633999402473
 40
18.76876323823666
 40
25.12637023077661
 40
25.12637023077661
 40
25.12637023077661
 40
25.12637023077661
 10
0.0002385766783846
 20
842.5348259093853
 30
0.0
 10
-0.000431388261859
 20
842.5348259069733
 30
0.0
 10
-0.0013814655403621
 20
842.5348259348145
 30
0.0
 10
-0.0015540261447313
 20
842.5348258441918
 30
0.0
 10
-0.001751428640091
 20
842.5348259682355
 30
0.0
 10
-0.0056047590933304
 20
842.5348261338036
 30
0.0
 10
-0.0107352989271021
 20
842.5348269709054
 30
0.0
 10
-0.0223819561779237
 20
842.5348306969775
 30
0.0
 10
-0.0441539371731778
 20
842.5348446380094
 30
0.0
 10
-0.1008786728361883
 20
842.5349171113328
 30
0.0
 10
-0.2114962550240307
 20
842.5352448230078
 30
0.0
 10
-0.44418548368958
 20
842.5366961628022
 30
0.0
 10
-0.8969076456560288
 20
842.5424963187766
 30
0.0
 10
-1.814613149635989
 20
842.5662881517871
 30
0.0
 10
-3.654403157882371
 20
842.6622993298442
 30
0.0
 10
-7.296441314317235
 20
843.0448228015409
 30
0.0
 10
-12.40936913035694
 20
844.1299251892933
 30
0.0
 10
-18.32235610084081
 20
846.2744860400642
 30
0.0
 10
-22.04132580201531
 20
848.2486646779034
 30
0.0
 10
-23.83922918809458
 20
849.371716356974
 30
0.0
  0
SPLINE
  5
B2
330
1F
100
AcDbEntity
  8
Miura_Table_9590-01_2D
100
AcDbSpline
210
0.0
220
0.0
230
1.0
 70
     8
 71
     3
 72
    25
 73
    21
 74
     0
 42
0.0000000001
 43
0.0000000001
 40
0.0
 40
0.0
 40
0.0
 40
0.0
 40
3.199464847565258
 40
6.339105644558495
 40
12.50811986083845
 40
18.76914410145589
 40
21.92709824290088
 40
23.5426726790446
 40
24.35047809908063
 40
24.73600031715062
 40
24.93791509714551
 40
25.02970318784148
 40
25.08478241549296
 40
25.10542804074601
 40
25.11450266261522
 40
25.12044633183926
 40
25.1237624889977
 40
25.12411320300106
 40
25.12426471033862
 40
25.12576885809665
 40
25.12576885809665
 40
25.12576885809665
 40
25.12576885809665
 10
23.83903595549873
 20
849.3715935999271
 30
0.0
 10
22.93409061299099
 20
848.8061951575585
 30
0.0
 10
21.10216963154653
 20
847.7505279967527
 30
0.0
 10
17.35060767958657
 20
845.9255960513112
 30
0.0
 10
12.46235462658387
 20
844.1461073918178
 30
0.0
 10
7.369079324375889
 20
843.0562585583853
 30
0.0
 10
3.709330417430465
 20
842.6667684366344
 30
0.0
 10
1.851280898302321
 20
842.5673999622604
 30
0.0
 10
0.9152639214016745
 20
842.5428432662286
 30
0.0
 10
0.4502290392420036
 20
842.5367490478845
 30
0.0
 10
0.2238244808968375
 20
842.5353088666827
 30
0.0
 10
0.1075669070442018
 20
842.5349317573766
 30
0.0
 10
0.0517292836730121
 20
842.5348514805082
 30
0.0
 10
0.0234633573991232
 20
842.5348307279644
 30
0.0
 10
0.0115754177404597
 20
842.5348273178979
 30
0.0
 10
0.0055053786809367
 20
842.5348260610817
 30
0.0
 10
0.0021275729604895
 20
842.5348260017399
 30
0.0
 10
0.0015005478117018
 20
842.5348258416948
 30
0.0
 10
0.0014900110636518
 20
842.5348259262917
 30
0.0
 10
0.0007269131547218
 20
842.5348259069156
 30
0.0
 10
0.0002385766783846
 20
842.5348259093853
 30
0.0
  0
SPLINE
  5
B3
330
1F
100
AcDbEntity
  8
Miura_Table_9590-01_2D
100
AcDbSpline
210
0.0
220
0.0
230
1.0
 70
    24
 71
     2
 72
     6
 73
     3
 74
     0
 42
0.0000000001
 43
0.0000000001
 40
0.0
 40
0.0
 40
0.0
 40
0.0002289742124082
 40
0.0002289742124082
 40
0.0002289742124082
 10
23.83975727332563
 20
849.372045963122
 30
0.0
 10
23.83939661441218
 20
849.3718197815246
 30
0.0
 10
23.83903595549873
 20
849.3715935999271
 30
0.0
  0
SPLINE
  5
B4
330
1F
100
AcDbEntity
  8
Miura_Table_9590-01_2D
100
AcDbSpline
210
0.0
220
0.0
230
1.0
 70
     8
 71
     3
 72
    17
 73
    13
 74
     0
 42
0.0000000001
 43
0.0000000001
 40
0.0
 40
0.0
 40
0.0
 40
0.0
 40
0.096206427153708
 40
0.1738289297860724
 40
0.3373064891875309
 40
0.5367070411388807
 40
0.7755987407383814
 40
1.076140845210542
 40
1.39684904123019
 40
1.692620935227463
 40
1.823404523224021
 40
1.966221085738925
 40
1.966221085738925
 40
1.966221085738925
 40
1.966221085738925
 10
24.99999231340462
 20
850.8720755310076
 30
0.0
 10
25.00007599933269
 20
850.8399929058587
 30
0.0
 10
24.99963648657013
 20
850.7820572204887
 30
0.0
 10
24.98693521240239
 20
850.6700504498133
 30
0.0
 10
24.94391938789977
 20
850.5287937457747
 30
0.0
 10
24.85004070244213
 20
850.3508084125431
 30
0.0
 10
24.70778194457398
 20
850.1493855375354
 30
0.0
 10
24.51994455287513
 20
849.9323548119341
 30
0.0
 10
24.3019228918256
 20
849.7178272674041
 30
0.0
 10
24.11124786000619
 20
849.5571863553221
 30
0.0
 10
23.95722399971419
 20
849.4461410877097
 30
0.0
 10
23.88020793376745
 20
849.397241054508
 30
0.0
 10
23.83975727332563
 20
849.372045963122
 30
0.0
  0
SPLINE
  5
B5
330
1F
100
AcDbEntity
  8
Miura_Table_9590-01_2D
100
AcDbSpline
210
0.0
220
0.0
230
1.0
 70
    24
 71
     2
 72
     6
 73
     3
 74
     0
 42
0.0000000001
 43
0.0000000001
 40
0.0
 40
0.0
 40
0.0
 40
0.3964465280207605
 40
0.3964465280207605
 40
0.3964465280207605
 10
25.00001907960268
 20
851.268522058851
 30
0.0
 10
25.00000569650365
 20
851.0702987949293
 30
0.0
 10
24.99999231340462
 20
850.8720755310076
 30
0.0
  0
SPLINE
  5
B6
330
1F
100
AcDbEntity
  8
Miura_Table_9590-01_2D
100
AcDbSpline
210
0.0
220
0.0
230
1.0
 70
     8
 71
     3
 72
    13
 73
     9
 74
     0
 42
0.0000000001
 43
0.0000000001
 40
0.0
 40
0.0
 40
0.0
 40
0.0
 40
0.0902185093720015
 40
0.1761896831588625
 40
0.3455633168783852
 40
0.4948657949572023
 40
0.556563259372795
 40
0.627356624861584
 40
0.627356624861584
 40
0.627356624861584
 40
0.627356624861584
 10
24.55885381686949
 20
851.6213557181579
 30
0.0
 10
24.58893150645326
 20
851.6202989744963
 30
0.0
 10
24.64749837356158
 20
851.6151354651506
 30
0.0
 10
24.75960680516619
 20
851.5862176252592
 30
0.0
 10
24.87975929685217
 20
851.521986667588
 30
0.0
 10
24.96742215826907
 20
851.4265040244873
 30
0.0
 10
24.99927343375657
 20
851.3365741844104
 30
0.0
 10
25.00003015807579
 20
851.2920838970379
 30
0.0
 10
25.00001907960268
 20
851.268522058851
 30
0.0
  0
SPLINE
  5
B7
330
1F
100
AcDbEntity
  8
Miura_Table_9590-01_2D
100
AcDbSpline
210
0.0
220
0.0
230
1.0
 70
     8
 71
     3
 72
    12
 73
     8
 74
     0
 42
0.0000000001
 43
0.0000000001
 40
0.0
 40
0.0
 40
0.0
 40
0.0
 40
0.0890023797843848
 40
0.1797960093845599
 40
0.411193526615116
 40
0.6556287843923315
 40
0.8529811660911646
 40
0.8529811660911646
 40
0.8529811660911646
 40
0.8529811660911646
 10
318.0659897584792
 20
851.2686683469497
 30
0.0
 10
318.0466777964884
 20
851.2913961512941
 30
0.0
 10
318.005884119636
 20
851.3355242125685
 30
0.0
 10
317.8972074777221
 20
851.4197767277608
 30
0.0
 10
317.7306862971664
 20
851.5100339111825
 30
0.0
 10
317.5211796488129
 20
851.5918341212412
 30
0.0
 10
317.3756606648822
 20
851.61968297514
 30
0.0
 10
317.3097707814886
 20
851.6214667995857
 30
0.0
  0
SPLINE
  5
B8
330
1F
100
AcDbEntity
  8
Miura_Table_9590-01_2D
100
AcDbSpline
210
0.0
220
0.0
230
1.0
 70
    24
 71
     2
 72
     6
 73
     3
 74
     0
 42
0.0000000001
 43
0.0000000001
 40
0.0
 40
0.0
 40
0.0
 40
0.5244495011189884
 40
0.5244495011189884
 40
0.5244495011189884
 10
318.4095026644463
 20
850.8720123094045
 30
0.0
 10
318.2377462114628
 20
851.070340328177
 30
0.0
 10
318.0659897584792
 20
851.2686683469497
 30
0.0
  0
SPLINE
  5
B9
330
1F
100
AcDbEntity
  8
Miura_Table_9590-01_2D
100
AcDbSpline
210
0.0
220
0.0
230
1.0
 70
     8
 71
     3
 72
    16
 73
    12
 74
     0
 42
0.0000000001
 43
0.0000000001
 40
0.0
 40
0.0
 40
0.0
 40
0.0
 40
0.1450445684408275
 40
0.2674563255525638
 40
0.5165020686838145
 40
0.7647651081847263
 40
0.9971024939488223
 40
1.19489142016583
 40
1.37708050099132
 40
1.556352254818322
 40
1.789706299665248
 40
1.789706299665248
 40
1.789706299665248
 40
1.789706299665248
 10
318.04861776915
 20
849.3720136683767
 30
0.0
 10
318.088063076988
 20
849.4001553079245
 30
0.0
 10
318.1602076122417
 20
849.4526142801187
 30
0.0
 10
318.290808885401
 20
849.5650613498394
 30
0.0
 10
318.429198844965
 20
849.7194146799013
 30
0.0
 10
318.5590590771708
 20
849.9261747347286
 30
0.0
 10
318.6411985212089
 20
850.1382231160883
 30
0.0
 10
318.6681831307806
 20
850.3423079239781
 30
0.0
 10
318.63881432978
 20
850.5286284447141
 30
0.0
 10
318.5502871230301
 20
850.7081767135357
 30
0.0
 10
318.4605355202702
 20
850.8132990360218
 30
0.0
 10
318.4095026644463
 20
850.8720123094045
 30
0.0
  0
SPLINE
  5
BA
330
1F
100
AcDbEntity
  8
Miura_Table_9590-01_2D
100
AcDbSpline
210
0.0
220
0.0
230
1.0
 70
     8
 71
     3
 72
    12
 73
     8
 74
     0
 42
0.0000000001
 43
0.0000000001
 40
0.0
 40
0.0
 40
0.0
 40
0.0
 40
2.765242495116512
 40
5.467131183712467
 40
11.12386283924205
 40
16.6939552205985
 40
22.3034199774177
 40
22.3034199774177
 40
22.3034199774177
 40
22.3034199774177
 10
297.1831102336737
 20
842.5364813511276
 30
0.0
 10
298.1048220220073
 20
842.5452709986714
 30
0.0
 10
299.9264057619821
 20
842.6330804963113
 30
0.0
 10
303.6088256392895
 20
843.0885718592856
 30
0.0
 10
308.134354429043
 20
844.1878595602093
 30
0.0
 10
313.3336567822416
 20
846.3436633353137
 30
0.0
 10
316.5280540771946
 20
848.2837407528475
 30
0.0
 10
318.04861776915
 20
849.3720136683767
 30
0.0
  0
SPLINE
  5
BB
330
1F
100
AcDbEntity
  8
Miura_Table_9590-01_2D
100
AcDbSpline
210
0.0
220
0.0
230
1.0
 70
     8
 71
     5
 72
    12
 73
     6
 74
     0
 42
0.0000000001
 43
0.0000000001
 40
-1.0
 40
-1.0
 40
-1.0
 40
-1.0
 40
-1.0
 40
-1.0
 40
0.0
 40
0.0
 40
0.0
 40
0.0
 40
0.0
 40
0.0
 10
296.8384569398631
 20
842.5348259085729
 30
0.0
 10
296.9073883934934
 20
842.5348320262005
 30
0.0
 10
296.9763198324217
 20
842.5350037980891
 30
0.0
 10
297.0452520108047
 20
842.5353327426187
 30
0.0
 10
297.1141819138547
 20
842.5358240354192
 30
0.0
 10
297.1831102336737
 20
842.5364813511276
 30
0.0
  0
SPLINE
  5
BC
330
1F
100
AcDbEntity
  8
Miura_Table_9590-01_2D
100
AcDbSpline
210
0.0
220
0.0
230
1.0
 70
     8
 71
     3
 72
    11
 73
     7
 74
     0
 42
0.0000000001
 43
0.0000000001
 40
0.0
 40
0.0
 40
0.0
 40
0.0
 40
2.849025153143939
 40
5.681848556468799
 40
11.31563454753918
 40
22.64754464670963
 40
22.64754464670963
 40
22.64754464670963
 40
22.64754464670963
 10
275.6286844388032
 20
849.3719355850071
 30
0.0
 10
276.4010126777275
 20
848.8190285565493
 30
0.0
 10
277.9836326676768
 20
847.7757174090386
 30
0.0
 10
281.2853606671097
 20
845.9468629915493
 30
0.0
 10
287.4070022236119
 20
843.4277394639055
 30
0.0
 10
293.0610010935688
 20
842.5344906614946
 30
0.0
 10
296.8384569398631
 20
842.5348259085729
 30
0.0
  0
SPLINE
  5
BD
330
1F
100
AcDbEntity
  8
Miura_Table_9590-01_2D
100
AcDbSpline
210
0.0
220
0.0
230
1.0
 70
     8
 71
     3
 72
    12
 73
     8
 74
     0
 42
0.0000000001
 43
0.0000000001
 40
0.0
 40
0.0
 40
0.0
 40
0.0
 40
0.215147148445352
 40
0.4344126759933203
 40
1.014845999299492
 40
1.738325432821743
 40
2.240259627195612
 40
2.240259627195612
 40
2.240259627195612
 40
2.240259627195612
 10
273.9686630757224
 20
850.8718195619831
 30
0.0
 10
274.0157139333105
 20
850.8172580938126
 30
0.0
 10
274.1115307770806
 20
850.7086292897932
 30
0.0
 10
274.3478628660869
 20
850.4664700151673
 30
0.0
 10
274.7198684238383
 20
850.1207197920526
 30
0.0
 10
275.1736700106712
 20
849.7252145151399
 30
0.0
 10
275.4918819922013
 20
849.4688129890981
 30
0.0
 10
275.6286844388032
 20
849.3719355850071
 30
0.0
  0
SPLINE
  5
BE
330
1F
100
AcDbEntity
  8
Miura_Table_9590-01_2D
100
AcDbSpline
210
0.0
220
0.0
230
1.0
 70
    24
 71
     2
 72
     6
 73
     3
 74
     0
 42
0.0000000001
 43
0.0000000001
 40
0.0
 40
0.0
 40
0.0
 40
0.5244136134753632
 40
0.5244136134753632
 40
0.5244136134753632
 10
273.6251202070398
 20
851.2685085096864
 30
0.0
 10
273.7968916413811
 20
851.0701640358348
 30
0.0
 10
273.9686630757224
 20
850.8718195619831
 30
0.0
  0
SPLINE
  5
BF
330
1F
100
AcDbEntity
  8
Miura_Table_9590-01_2D
100
AcDbSpline
210
0.0
220
0.0
230
1.0
 70
     8
 71
     3
 72
    13
 73
     9
 74
     0
 42
0.0000000001
 43
0.0000000001
 40
0.0
 40
0.0
 40
0.0
 40
0.0
 40
0.0842084935809858
 40
0.1523207872208179
 40
0.275918593398183
 40
0.3976132335562294
 40
0.4611173083935368
 40
0.5436834943217632
 40
0.5436834943217632
 40
0.5436834943217632
 40
0.5436834943217632
 10
273.7940424734034
 20
851.6219808970818
 30
0.0
 10
273.7660711242597
 20
851.6219489970183
 30
0.0
 10
273.714907698286
 20
851.6186182727481
 30
0.0
 10
273.6262767310045
 20
851.5934432290262
 30
0.0
 10
273.5442235144501
 20
851.5178687263847
 30
0.0
 10
273.5362818323292
 20
851.407898473248
 30
0.0
 10
273.5757172844878
 20
851.326756245837
 30
0.0
 10
273.6068680254484
 20
851.2891451020391
 30
0.0
 10
273.6251202070398
 20
851.2685085096864
 30
0.0
  0
POLYLINE
  5
C0
330
1F
100
AcDbEntity
  8
Miura_Table_9590-01_2D
100
AcDb2dPolyline
 66
     1
 10
0.0
 20
0.0
 30
0.0
  0
VERTEX
  5
C1
330
C0
100
AcDbEntity
  8
Miura_Table_9590-01_2D
100
AcDbVertex
100
AcDb2dVertex
 10
0.0000003117747838
 20
1218.326996023383
 30
0.0
  0
VERTEX
  5
C2
330
C0
100
AcDbEntity
  8
Miura_Table_9590-01_2D
100
AcDbVertex
100
AcDb2dVertex
 10
-0.000425033045758
 20
1155.776716860787
 30
0.0
  0
SEQEND
  5
C3
330
C0
100
AcDbEntity
  8
Miura_Table_9590-01_2D
  0
SPLINE
  5
C4
330
1F
100
AcDbEntity
  8
Miura_Table_9590-01_2D
100
AcDbSpline
210
0.0
220
0.0
230
1.0
 70
    12
 71
     2
 72
     6
 73
     3
 74
     0
 42
0.0000000001
 43
0.0000000001
 40
0.0
 40
0.0
 40
0.0
 40
0.0456162757198297
 40
0.0456162757198297
 40
0.0456162757198297
 10
-0.775321464825538
 20
1154.802266241069
 30
0.0
 41
1.0
 10
-0.797550102260843
 20
1154.797139865735
 30
0.0
 41
0.9997392900035
 10
-0.8199896032056131
 20
1154.793033669976
 30
0.0
 41
1.0
  0
SPLINE
  5
C5
330
1F
100
AcDbEntity
  8
Miura_Table_9590-01_2D
100
AcDbSpline
210
0.0
220
0.0
230
1.0
 70
     8
 71
     3
 72
    13
 73
     9
 74
     0
 42
0.0000000001
 43
0.0000000001
 40
0.0
 40
0.0
 40
0.0
 40
0.0
 40
1.019225064702818
 40
2.012580360965314
 40
3.947692328443181
 40
4.933986289060289
 40
5.854459583978036
 40
7.77721457745443
 40
7.77721457745443
 40
7.77721457745443
 40
7.77721457745443
 10
-7.422420361133845
 20
1152.866519989849
 30
0.0
 10
-7.126279030012483
 20
1152.700056022296
 30
0.0
 10
-6.531881317252555
 20
1152.388247268671
 30
0.0
 10
-5.331226851916654
 20
1151.848448935075
 30
0.0
 10
-4.094687745448937
 20
1151.423497755286
 30
0.0
 10
-2.847898928927862
 20
1151.127738087783
 30
0.0
 10
-1.588632730843528
 20
1150.91482987031
 30
0.0
 10
-0.6409022308007479
 20
1150.850366266584
 30
0.0
 10
0.0000003117747838
 20
1150.849830321351
 30
0.0
  0
SPLINE
  5
C6
330
1F
100
AcDbEntity
  8
Miura_Table_9590-01_2D
100
AcDbSpline
210
0.0
220
0.0
230
1.0
 70
    12
 71
     2
 72
     6
 73
     3
 74
     0
 42
0.0000000001
 43
0.0000000001
 40
0.0
 40
0.0
 40
0.0
 40
0.5308753252867442
 40
0.5308753252867442
 40
0.5308753252867442
 10
-7.886179102791175
 20
1153.12488930395
 30
0.0
 41
1.0
 10
-7.653744063973144
 20
1152.996702040451
 30
0.0
 41
0.9999907493369194
 10
-7.422420361133845
 20
1152.866519989849
 30
0.0
 41
1.0
  0
SPLINE
  5
C7
330
1F
100
AcDbEntity
  8
Miura_Table_9590-01_2D
100
AcDbSpline
210
0.0
220
0.0
230
1.0
 70
     8
 71
     3
 72
    13
 73
     9
 74
     0
 42
0.0000000001
 43
0.0000000001
 40
0.0
 40
0.0
 40
0.0
 40
0.0
 40
0.9782337425002418
 40
1.922754993476621
 40
2.84322828839396
 40
3.829522249011025
 40
5.764634216489107
 40
7.777214577453913
 40
7.777214577453913
 40
7.777214577453913
 40
7.777214577453913
 10
0.0000003117747838
 20
1150.849830321351
 30
0.0
 10
0.3260856012229851
 20
1150.849983177819
 30
0.0
 10
0.9669617714935157
 20
1150.872663756499
 30
0.0
 10
1.910313667173796
 20
1150.96915818361
 30
0.0
 10
2.847898933217039
 20
1151.127755131748
 30
0.0
 10
4.094684466070248
 20
1151.423503067313
 30
0.0
 10
5.653178666751046
 20
1151.959047673773
 30
0.0
 10
6.837687144806296
 20
1152.53769524732
 30
0.0
 10
7.422420984683413
 20
1152.866519989849
 30
0.0
  0
SPLINE
  5
C8
330
1F
100
AcDbEntity
  8
Miura_Table_9590-01_2D
100
AcDbSpline
210
0.0
220
0.0
230
1.0
 70
    12
 71
     2
 72
     6
 73
     3
 74
     0
 42
0.0000000001
 43
0.0000000001
 40
0.0
 40
0.0
 40
0.0
 40
0.5308753252869439
 40
0.5308753252869439
 40
0.5308753252869439
 10
7.422420984684322
 20
1152.866519989849
 30
0.0
 41
1.0
 10
7.653744687522841
 20
1152.996702040451
 30
0.0
 41
0.9999907493369284
 10
7.886179726341652
 20
1153.12488930395
 30
0.0
 41
1.0
  0
SPLINE
  5
C9
330
1F
100
AcDbEntity
  8
Miura_Table_9590-01_2D
100
AcDbSpline
210
0.0
220
0.0
230
1.0
 70
    12
 71
     2
 72
     6
 73
     3
 74
     0
 42
0.0000000001
 43
0.0000000001
 40
0.0
 40
0.0
 40
0.0
 40
1.53375019001792
 40
1.53375019001792
 40
1.53375019001792
 10
0.0000003117747838
 20
1218.326996023383
 30
0.0
 41
1.0
 10
-0.0000398534440044
 20
1219.290586057949
 30
0.0
 41
0.7201170802944139
 10
-0.9629666716837164
 20
1219.326330974253
 30
0.0
 41
1.0
  0
SPLINE
  5
CA
330
1F
100
AcDbEntity
  8
Miura_Table_9590-01_2D
100
AcDbSpline
210
0.0
220
0.0
230
1.0
 70
    12
 71
     2
 72
     6
 73
     3
 74
     0
 42
0.0000000001
 43
0.0000000001
 40
0.0
 40
0.0
 40
0.0
 40
1.53375001570948
 40
1.53375001570948
 40
1.53375001570948
 10
0.9629671210223023
 20
1219.326330967984
 30
0.0
 41
1.0
 10
0.0000404772078434
 20
1219.290585889653
 30
0.0
 41
0.7201171409990421
 10
0.0000003117747838
 20
1218.326996023383
 30
0.0
 41
1.0
  0
SPLINE
  5
CB
330
1F
100
AcDbEntity
  8
Miura_Table_9590-01_2D
100
AcDbSpline
210
0.0
220
0.0
230
1.0
 70
     8
 71
     3
 72
    13
 73
     9
 74
     0
 42
0.0000000001
 43
0.0000000001
 40
0.0
 40
0.0
 40
0.0
 40
0.0
 40
0.0759172290794612
 40
0.1358047706645862
 40
0.2547108411286943
 40
0.3727728321327626
 40
0.4326874844364469
 40
0.5009095124335416
 40
0.5009095124335416
 40
0.5009095124335416
 40
0.5009095124335416
 10
707.2750747108526
 20
851.268522004352
 30
0.0
 10
707.2930214041357
 20
851.2863132836328
 30
0.0
 10
707.3247420709963
 20
851.3189783689584
 30
0.0
 10
707.3663794761137
 20
851.3940138738535
 30
0.0
 10
707.3698640229982
 20
851.498196882894
 30
0.0
 10
707.3082706103364
 20
851.5830624476314
 30
0.0
 10
707.2314327059953
 20
851.615990396594
 30
0.0
 10
707.1888884088835
 20
851.6207669929395
 30
0.0
 10
707.1661117117605
 20
851.6215828402915
 30
0.0
  0
SPLINE
  5
CC
330
1F
100
AcDbEntity
  8
Miura_Table_9590-01_2D
100
AcDbSpline
210
0.0
220
0.0
230
1.0
 70
    12
 71
     3
 72
     8
 73
     4
 74
     0
 42
0.0000000001
 43
0.0000000001
 40
-0.2809667047186584
 40
-0.2809667047186584
 40
-0.2809667047186584
 40
-0.2809667047186584
 40
0.0
 40
0.0
 40
0.0
 40
0.0
 10
707.2740973571822
 20
851.2681963272184
 30
0.0
 41
1.0
 10
707.2747646470693
 20
851.268518920501
 30
0.0
 41
1.0
 10
707.2750905110365
 20
851.2685219751509
 30
0.0
 41
1.0
 10
707.2750747108526
 20
851.268522004352
 30
0.0
 41
1.0
  0
SPLINE
  5
CD
330
1F
100
AcDbEntity
  8
Miura_Table_9590-01_2D
100
AcDbSpline
210
0.0
220
0.0
230
1.0
 70
    24
 71
     2
 72
     6
 73
     3
 74
     0
 42
0.0000000001
 43
0.0000000001
 40
0.0
 40
0.0
 40
0.0
 40
0.559738903496817
 40
0.559738903496817
 40
0.559738903496817
 10
706.8786277480126
 20
850.872075476155
 30
0.0
 10
707.0763625525974
 20
851.0701359016867
 30
0.0
 10
707.2740973571822
 20
851.2681963272184
 30
0.0
  0
SPLINE
  5
CE
330
1F
100
AcDbEntity
  8
Miura_Table_9590-01_2D
100
AcDbSpline
210
0.0
220
0.0
230
1.0
 70
    12
 71
     3
 72
     8
 73
     4
 74
     0
 42
0.0000000001
 43
0.0000000001
 40
-0.2806769686640115
 40
-0.2806769686640115
 40
-0.2806769686640115
 40
-0.2806769686640115
 40
0.0
 40
0.0
 40
0.0
 40
0.0
 10
706.8779616252045
 20
850.8720751994083
 30
0.0
 41
1.0
 10
706.8784235208427
 20
850.8720754761234
 30
0.0
 41
1.0
 10
706.8786456086523
 20
850.8720754766853
 30
0.0
 41
1.0
 10
706.8786277480126
 20
850.872075476155
 30
0.0
 41
1.0
  0
SPLINE
  5
CF
330
1F
100
AcDbEntity
  8
Miura_Table_9590-01_2D
100
AcDbSpline
210
0.0
220
0.0
230
1.0
 70
    24
 71
     2
 72
     6
 73
     3
 74
     0
 42
0.0000000001
 43
0.0000000001
 40
0.0
 40
0.0
 40
0.0
 40
0.0000154295494115
 40
0.0000154295494115
 40
0.0000154295494115
 10
706.8782891281439
 20
850.8717363395035
 30
0.0
 10
706.8781253766742
 20
850.8719057694559
 30
0.0
 10
706.8779616252045
 20
850.8720751994083
 30
0.0
  0
SPLINE
  5
D0
330
1F
100
AcDbEntity
  8
Miura_Table_9590-01_2D
100
AcDbSpline
210
0.0
220
0.0
230
1.0
 70
     8
 71
     3
 72
    12
 73
     8
 74
     0
 42
0.0000000001
 43
0.0000000001
 40
0.0
 40
0.0
 40
0.0
 40
0.0
 40
0.198582148184335
 40
0.4558823293423835
 40
1.173126657775418
 40
1.79495840075012
 40
2.266661781302044
 40
2.266661781302044
 40
2.266661781302044
 40
2.266661781302044
 10
705.1791149315909
 20
849.371766002912
 30
0.0
 10
705.2323327163672
 20
849.4119877952141
 30
0.0
 10
705.3518185803173
 20
849.5059000858112
 30
0.0
 10
705.6524394891499
 20
849.7560283178295
 30
0.0
 10
706.0543483203842
 20
850.1047955043471
 30
0.0
 10
706.5040130145321
 20
850.5075157047486
 30
0.0
 10
706.7673353634959
 20
850.7596602400386
 30
0.0
 10
706.8782891281439
 20
850.8717363395035
 30
0.0
  0
SPLINE
  5
D1
330
1F
100
AcDbEntity
  8
Miura_Table_9590-01_2D
100
AcDbSpline
210
0.0
220
0.0
230
1.0
 70
     8
 71
     3
 72
    12
 73
     8
 74
     0
 42
0.0000000001
 43
0.0000000001
 40
0.0
 40
0.0
 40
0.0
 40
0.0
 40
2.73591608993206
 40
5.43493518296994
 40
10.74089733582064
 40
16.11138166064301
 40
21.52862391160747
 40
21.52862391160747
 40
21.52862391160747
 40
21.52862391160747
 10
685.1543272035838
 20
842.5356882339142
 30
0.0
 10
686.0662880337045
 20
842.5421844425964
 30
0.0
 10
687.8772856645505
 20
842.6302810534232
 30
0.0
 10
691.4306408410298
 20
843.0915068435913
 30
0.0
 10
695.7657344937447
 20
844.1920912811668
 30
0.0
 10
700.7042302009108
 20
846.331451003259
 30
0.0
 10
703.7416114792782
 20
848.2781104298226
 30
0.0
 10
705.1791149315909
 20
849.371766002912
 30
0.0
  0
SPLINE
  5
D2
330
1F
100
AcDbEntity
  8
Miura_Table_9590-01_2D
100
AcDbSpline
210
0.0
220
0.0
230
1.0
 70
    12
 71
     2
 72
     6
 73
     3
 74
     0
 42
0.0000000001
 43
0.0000000001
 40
0.0
 40
0.0
 40
0.0
 40
0.5724594400308637
 40
0.5724594400308637
 40
0.5724594400308637
 10
684.5818754876223
 20
842.5365057524848
 30
0.0
 41
1.0
 10
684.868097809365
 20
842.5336208107846
 30
0.0
 41
0.9999625809148069
 10
685.1543272035838
 20
842.5356882339142
 30
0.0
 41
1.0
  0
SPLINE
  5
D3
330
1F
100
AcDbEntity
  8
Miura_Table_9590-01_2D
100
AcDbSpline
210
0.0
220
0.0
230
1.0
 70
     8
 71
     3
 72
    11
 73
     7
 74
     0
 42
0.0000000001
 43
0.0000000001
 40
0.0
 40
0.0
 40
0.0
 40
0.0
 40
2.743424606184175
 40
5.414828345882175
 40
10.77592486299058
 40
21.43397361190056
 40
21.43397361190056
 40
21.43397361190056
 40
21.43397361190056
 10
664.6517323677549
 20
849.3717668485788
 30
0.0
 10
665.3798316964244
 20
848.8177706992437
 30
0.0
 10
666.8610968175785
 20
847.783315928091
 30
0.0
 10
669.9643259987965
 20
845.9696155942597
 30
0.0
 10
675.6990648679125
 20
843.4819798753836
 30
0.0
 10
681.0293235574331
 20
842.5721058930885
 30
0.0
 10
684.5818754876223
 20
842.5365057524848
 30
0.0
  0
SPLINE
  5
D4
330
1F
100
AcDbEntity
  8
Miura_Table_9590-01_2D
100
AcDbSpline
210
0.0
220
0.0
230
1.0
 70
     8
 71
     3
 72
    12
 73
     8
 74
     0
 42
0.0000000001
 43
0.0000000001
 40
0.0
 40
0.0
 40
0.0
 40
0.0
 40
0.0980656229116343
 40
0.2035418359053462
 40
0.4140500476026759
 40
0.6218932345208525
 40
0.8516964985803366
 40
0.8516964985803366
 40
0.8516964985803366
 40
0.8516964985803366
 10
664.1592070604834
 20
850.0465646977068
 30
0.0
 10
664.1675324411631
 20
850.0149374586288
 30
0.0
 10
664.1881969495021
 20
849.9502847628344
 30
0.0
 10
664.2429860797388
 20
849.823328474328
 30
0.0
 10
664.3338950047605
 20
849.6735795619668
 30
0.0
 10
664.4759650866149
 20
849.5096685221902
 30
0.0
 10
664.5901220546061
 20
849.4180145349267
 30
0.0
 10
664.6517323677549
 20
849.3717668485788
 30
0.0
  0
SPLINE
  5
D5
330
1F
100
AcDbEntity
  8
Miura_Table_9590-01_2D
100
AcDbSpline
210
0.0
220
0.0
230
1.0
 70
    12
 71
     2
 72
     6
 73
     3
 74
     0
 42
0.0000000001
 43
0.0000000001
 40
0.0
 40
0.0
 40
0.0
 40
0.2017970891503139
 40
0.2017970891503139
 40
0.2017970891503139
 10
664.1311450055932
 20
850.2458943212316
 30
0.0
 41
1.0
 10
664.132936253898
 20
850.1445063669258
 30
0.0
 41
0.9925431650836243
 10
664.1592070604834
 20
850.0465646977068
 30
0.0
 41
1.0
  0
SPLINE
  5
D6
330
1F
100
AcDbEntity
  8
Miura_Table_9590-01_2D
100
AcDbSpline
210
0.0
220
0.0
230
1.0
 70
    12
 71
     5
 72
    12
 73
     6
 74
     0
 42
0.0000000001
 43
0.0000000001
 40
0.0
 40
0.0
 40
0.0
 40
0.0
 40
0.0
 40
0.0
 40
0.8739897245742342
 40
0.8739897245742342
 40
0.8739897245742342
 40
0.8739897245742342
 40
0.8739897245742342
 40
0.8739897245742342
 10
664.4522206300276
 20
850.8720754766941
 30
0.0
 41
1.0
 10
664.3440407797193
 20
850.7638956263502
 30
0.0
 41
1.0
 10
664.2358609294411
 20
850.6557157760151
 30
0.0
 41
1.0
 10
664.1624512011899
 20
850.5289722597995
 30
0.0
 41
1.0
 10
664.1293401679636
 20
850.3890528218803
 30
0.0
 41
1.0
 10
664.1311450055932
 20
850.2458943212316
 30
0.0
 41
1.0
  0
SPLINE
  5
D7
330
1F
100
AcDbEntity
  8
Miura_Table_9590-01_2D
100
AcDbSpline
210
0.0
220
0.0
230
1.0
 70
    12
 71
     2
 72
     6
 73
     3
 74
     0
 42
0.0000000001
 43
0.0000000001
 40
-0.5606600998610313
 40
-0.5606600998610313
 40
-0.5606600998610313
 40
0.0
 40
0.0
 40
0.0
 10
664.8486671883697
 20
851.2685220353592
 30
0.0
 41
1.0
 10
664.6504439353691
 20
851.0702987299438
 30
0.0
 41
0.9999999999999913
 10
664.4522206300276
 20
850.8720754766941
 30
0.0
 41
1.0
  0
SPLINE
  5
D8
330
1F
100
AcDbEntity
  8
Miura_Table_9590-01_2D
100
AcDbSpline
210
0.0
220
0.0
230
1.0
 70
    12
 71
     5
 72
    12
 73
     6
 74
     0
 42
0.0000000001
 43
0.0000000001
 40
0.0589558208107204
 40
0.0589558208107204
 40
0.0589558208107204
 40
0.0589558208107204
 40
0.0589558208107204
 40
0.0589558208107204
 40
0.9432931329715265
 40
0.9432931329715265
 40
0.9432931329715265
 40
0.9432931329715265
 40
0.9432931329715265
 40
0.9432931329715265
 10
665.6603547776217
 20
851.6216695649005
 30
0.0
 41
1.0
 10
665.5311895163254
 20
851.6181154918918
 30
0.0
 41
1.0
 10
665.364038477243
 20
851.5893752602572
 30
0.0
 41
1.0
 10
665.0112638882451
 20
851.4311187352275
 30
0.0
 41
1.0
 10
664.9299655383552
 20
851.3498203852944
 30
0.0
 41
1.0
 10
664.8486671883697
 20
851.2685220353592
 30
0.0
 41
1.0
  0
SPLINE
  5
D9
330
1F
100
AcDbEntity
  8
Miura_Table_9590-01_2D
100
AcDbSpline
210
0.0
220
0.0
230
1.0
 70
    24
 71
     2
 72
     6
 73
     3
 74
     0
 42
0.0000000001
 43
0.0000000001
 40
0.0
 40
0.0
 40
0.0
 40
436.03635649731
 40
436.03635649731
 40
436.03635649731
 10
973.314353106713
 20
1159.946339792107
 30
0.0
 10
819.1522206946852
 20
1005.784207681012
 30
0.0
 10
664.9900882826573
 20
851.6220755699167
 30
0.0
  0
SPLINE
  5
DA
330
1F
100
AcDbEntity
  8
Miura_Table_9590-01_2D
100
AcDbSpline
210
0.0
220
0.0
230
1.0
 70
     8
 71
     3
 72
    14
 73
    10
 74
     0
 42
0.0000000001
 43
0.0000000001
 40
0.0
 40
0.0
 40
0.0
 40
0.0
 40
0.9891480038174153
 40
2.048682505589698
 40
4.284630339927826
 40
5.914186096750435
 40
6.608070935285521
 40
9.47879807401191
 40
12.82201302314979
 40
12.82201302314979
 40
12.82201302314979
 40
12.82201302314979
 10
982.2845847036428
 20
1169.105641672947
 30
0.0
 10
982.0649145446064
 20
1168.859757791019
 30
0.0
 10
981.6062603565829
 20
1168.353798802051
 30
0.0
 10
980.6341034742732
 20
1167.307478519519
 30
0.0
 10
979.496276903556
 20
1166.123946724525
 30
0.0
 10
978.4256243428431
 20
1165.045264860462
 30
0.0
 10
977.1987148794474
 20
1163.82362947315
 30
0.0
 10
975.5625210851153
 20
1162.203467826957
 30
0.0
 10
974.1021904436534
 20
1160.734503837297
 30
0.0
 10
973.314353106713
 20
1159.946339792107
 30
0.0
  0
SPLINE
  5
DB
330
1F
100
AcDbEntity
  8
Miura_Table_9590-01_2D
100
AcDbSpline
210
0.0
220
0.0
230
1.0
 70
     8
 71
     5
 72
    12
 73
     6
 74
     0
 42
0.0000000001
 43
0.0000000001
 40
0.0
 40
0.0
 40
0.0
 40
0.0
 40
0.0
 40
0.0
 40
1.0
 40
1.0
 40
1.0
 40
1.0
 40
1.0
 40
1.0
 10
989.6229300873488
 20
1178.718841433893
 30
0.0
 10
988.3048040098261
 20
1176.690753529404
 30
0.0
 10
986.9098784499388
 20
1174.712580325468
 30
0.0
 10
985.4276676223594
 20
1172.784622267867
 30
0.0
 10
983.8960786952498
 20
1170.909438784485
 30
0.0
 10
982.2845847036428
 20
1169.105641672947
 30
0.0
  0
SPLINE
  5
DC
330
1F
100
AcDbEntity
  8
Miura_Table_9590-01_2D
100
AcDbSpline
210
0.0
220
0.0
230
1.0
 70
     8
 71
     3
 72
    13
 73
     9
 74
     0
 42
0.0000000001
 43
0.0000000001
 40
0.0
 40
0.0
 40
0.0
 40
0.0
 40
3.162722799211982
 40
5.963232700855801
 40
11.82659241116913
 40
23.58923876696889
 40
35.36859962543459
 40
47.14230545140192
 40
47.14230545140192
 40
47.14230545140192
 40
47.14230545140192
 10
1002.545805686016
 20
1223.350980183095
 30
0.0
 10
1002.548009920058
 20
1222.296811356716
 30
0.0
 10
1002.539290425581
 20
1220.308682054401
 30
0.0
 10
1002.364179487608
 20
1216.369742568683
 30
0.0
 10
1001.696769864132
 20
1209.589124622339
 30
0.0
 10
999.6632838701084
 20
1199.973431902985
 30
0.0
 10
995.5546904744992
 20
1188.907743953102
 30
0.0
 10
991.7616159425238
 20
1182.009454515862
 30
0.0
 10
989.6229300873488
 20
1178.718841433893
 30
0.0
  0
SPLINE
  5
DD
330
1F
100
AcDbEntity
  8
Miura_Table_9590-01_2D
100
AcDbSpline
210
0.0
220
0.0
230
1.0
 70
    12
 71
     2
 72
     6
 73
     3
 74
     0
 42
0.0000000001
 43
0.0000000001
 40
0.0
 40
0.0
 40
0.0
 40
1.347660071043663
 40
1.347660071043663
 40
1.347660071043663
 10
1003.323521482682
 20
1224.326994577509
 30
0.0
 41
1.0
 10
1002.545008423112
 20
1224.149475602542
 30
0.0
 41
0.781453218492171
 10
1002.545805686016
 20
1223.350980183095
 30
0.0
 41
1.0
  0
SPLINE
  5
DE
330
1F
100
AcDbEntity
  8
Miura_Table_9590-01_2D
100
AcDbSpline
210
0.0
220
0.0
230
1.0
 70
    12
 71
     2
 72
     6
 73
     3
 74
     0
 42
0.0000000001
 43
0.0000000001
 40
0.0
 40
0.0
 40
0.0
 40
0.4549953359630085
 40
0.4549953359630085
 40
0.4549953359630085
 10
1017.632415495253
 20
1154.778480350171
 30
0.0
 41
1.0
 10
1017.863508171096
 20
1154.792309856145
 30
0.0
 41
0.9742292604962514
 10
1018.065008090808
 20
1154.906296093999
 30
0.0
 41
1.0
  0
SPLINE
  5
DF
330
1F
100
AcDbEntity
  8
Miura_Table_9590-01_2D
100
AcDbSpline
210
0.0
220
0.0
230
1.0
 70
     8
 71
     3
 72
    20
 73
    16
 74
     0
 42
0.0000000001
 43
0.0000000001
 40
-431.4835608872114
 40
-431.4835608872114
 40
-431.4835608872114
 40
-431.4835608872114
 40
-25.59720475510172
 40
-25.59720475510172
 40
-25.59720475510172
 40
-23.041181434814
 40
-22.35224480279041
 40
-22.35224480279041
 40
-22.35224480279041
 40
-20.7744918917307
 40
-0.3474546757883483
 40
-0.3474546757883483
 40
-0.3474546757883483
 40
0.9942450456762053
 40
2.82110455926947
 40
2.82110455926947
 40
2.82110455926947
 40
2.82110455926947
 10
707.6286276355663
 20
851.6220754790297
 30
0.0
 10
803.2969518233263
 20
947.290414558577
 30
0.0
 10
898.9652760110871
 20
1042.958753638124
 30
0.0
 10
994.6336001988461
 20
1138.627092717671
 30
0.0
 10
995.2406219525551
 20
1139.224851046317
 30
0.0
 10
996.0145753384609
 20
1139.980813485398
 30
0.0
 10
996.8080080584737
 20
1140.715942183002
 30
0.0
 10
996.9772886081296
 20
1140.871117018136
 30
0.0
 10
997.364722920524
 20
1141.226267421847
 30
0.0
 10
1002.860731611854
 20
1146.066287160374
 30
0.0
 10
1008.170394988669
 20
1151.697691951252
 30
0.0
 10
1014.525120662704
 20
1154.138664430937
 30
0.0
 10
1014.942542506645
 20
1154.299004197867
 30
0.0
 10
1015.957749742213
 20
1154.600805576599
 30
0.0
 10
1017.024710283421
 20
1154.742112850307
 30
0.0
 10
1017.632415495252
 20
1154.778480350171
 30
0.0
  0
SPLINE
  5
E0
330
1F
100
AcDbEntity
  8
Miura_Table_9590-01_2D
100
AcDbSpline
210
0.0
220
0.0
230
1.0
 70
     8
 71
     3
 72
    11
 73
     7
 74
     0
 42
0.0000000001
 43
0.0000000001
 40
0.0081002585430663
 40
0.0081002585430663
 40
0.0081002585430663
 40
0.0081002585430663
 40
0.76990063300263
 40
0.76990063300263
 40
0.76990063300263
 40
3.675276053828606
 40
3.675276053828606
 40
3.675276053828606
 40
3.675276053828606
 10
1049.310726940697
 20
1219.935024114478
 30
0.0
 10
1049.356248388005
 20
1219.68500614049
 30
0.0
 10
1049.515794738978
 20
1219.326994542536
 30
0.0
 10
1049.769682114372
 20
1219.326994543582
 30
0.0
 10
1050.738140587982
 20
1219.326994547572
 30
0.0
 10
1051.70659906159
 20
1219.326994551562
 30
0.0
 10
1052.675057535198
 20
1219.326994561536
 30
0.0
  0
SPLINE
  5
E1
330
1F
100
AcDbEntity
  8
Miura_Table_9590-01_2D
100
AcDbSpline
210
0.0
220
0.0
230
1.0
 70
    12
 71
     2
 72
     6
 73
     3
 74
     0
 42
0.0000000001
 43
0.0000000001
 40
-0.3761526883931789
 40
-0.3761526883931789
 40
-0.3761526883931789
 40
0.0
 40
0.0
 40
0.0
 10
1049.24389142163
 20
1220.305191315264
 30
0.0
 41
1.0
 10
1049.27703721083
 20
1220.120058609282
 30
0.0
 41
0.9999989203661542
 10
1049.310726940697
 20
1219.935024114478
 30
0.0
 41
1.0
  0
SPLINE
  5
E2
330
1F
100
AcDbEntity
  8
Miura_Table_9590-01_2D
100
AcDbSpline
210
0.0
220
0.0
230
1.0
 70
     8
 71
     3
 72
    15
 73
    11
 74
     0
 42
0.0000000001
 43
0.0000000001
 40
-5.517215510995963
 40
-5.517215510995963
 40
-5.517215510995963
 40
-5.517215510995963
 40
-4.92773864084709
 40
-4.318670834827659
 40
-3.704388331691281
 40
-3.058194976662103
 40
-2.377907408399817
 40
-1.641856638493278
 40
-0.8506135065108558
 40
0.0
 40
0.0
 40
0.0
 40
0.0
 10
1046.023572199482
 20
1224.32691895233
 30
0.0
 10
1046.218427970425
 20
1224.301589109538
 30
0.0
 10
1046.609485739977
 20
1224.210664859054
 30
0.0
 10
1047.161311076392
 20
1223.956614828395
 30
0.0
 10
1047.666868017161
 20
1223.587429106326
 30
0.0
 10
1048.112615630899
 20
1223.115139243249
 30
0.0
 10
1048.497354858082
 20
1222.542954552363
 30
0.0
 10
1048.817338568607
 20
1221.878499308212
 30
0.0
 10
1049.072111919901
 20
1221.126629991471
 30
0.0
 10
1049.193925476405
 20
1220.584271429793
 30
0.0
 10
1049.24389142163
 20
1220.305191315264
 30
0.0
  0
SPLINE
  5
E3
330
1F
100
AcDbEntity
  8
Miura_Table_9590-01_2D
100
AcDbSpline
210
0.0
220
0.0
230
1.0
 70
    12
 71
     2
 72
     6
 73
     3
 74
     0
 42
0.0000000001
 43
0.0000000001
 40
-5.848452852216105
 40
-5.848452852216105
 40
-5.848452852216105
 40
0.0
 40
0.0
 40
0.0
 10
1040.175119348493
 20
1224.326994577786
 30
0.0
 41
1.0
 10
1043.099345775028
 20
1224.327037236675
 30
0.0
 41
0.9999999996213539
 10
1046.023572199482
 20
1224.32691895233
 30
0.0
 41
1.0
  0
SPLINE
  5
E4
330
1F
100
AcDbEntity
  8
Miura_Table_9590-01_2D
100
AcDbSpline
210
0.0
220
0.0
230
1.0
 70
    12
 71
     2
 72
     6
 73
     3
 74
     0
 42
0.0000000001
 43
0.0000000001
 40
0.0
 40
0.0
 40
0.0
 40
7.460028192515836
 40
7.460028192515836
 40
7.460028192515836
 10
1032.715091162269
 20
1224.327198585222
 30
0.0
 41
1.0
 10
1036.445105249967
 20
1224.326898604927
 30
0.0
 41
0.9999999985914357
 10
1040.175119348493
 20
1224.326994577786
 30
0.0
 41
1.0
  0
SPLINE
  5
E5
330
1F
100
AcDbEntity
  8
Miura_Table_9590-01_2D
100
AcDbSpline
210
0.0
220
0.0
230
1.0
 70
    12
 71
     2
 72
     6
 73
     3
 74
     0
 42
0.0000000001
 43
0.0000000001
 40
0.0
 40
0.0
 40
0.0
 40
0.0159951658560524
 40
0.0159951658560524
 40
0.0159951658560524
 10
1032.699096285038
 20
1224.327102562599
 30
0.0
 41
1.0
 10
1032.707093705052
 20
1224.327153672476
 30
0.0
 41
0.999999924943241
 10
1032.715091162269
 20
1224.327198585222
 30
0.0
 41
1.0
  0
SPLINE
  5
E6
330
1F
100
AcDbEntity
  8
Miura_Table_9590-01_2D
100
AcDbSpline
210
0.0
220
0.0
230
1.0
 70
    12
 71
     3
 72
    54
 73
    50
 74
     0
 42
0.0000000001
 43
0.0000000001
 40
-36.3735092767428
 40
-36.3735092767428
 40
-36.3735092767428
 40
-36.3735092767428
 40
-35.65104266691848
 40
-35.51144398999158
 40
-35.26611209216914
 40
-35.10822082106448
 40
-35.01354362312178
 40
-34.93913335904487
 40
-34.75994055350136
 40
-34.55514104781032
 40
-34.31738447665442
 40
-34.04971475097287
 40
-33.65792912305069
 40
-33.23516828083971
 40
-32.29041859629451
 40
-31.25837170456729
 40
-30.19949178401347
 40
-30.19949178401347
 40
-30.19949178401347
 40
-29.4960952416352
 40
-29.4960952416352
 40
-28.79304492415562
 40
-28.79304492415562
 40
-28.79304492415562
 40
-20.11557317593713
 40
-20.11557317593713
 40
-20.11557317593713
 40
-8.53272600516803
 40
-8.53272600516803
 40
-8.53272600516803
 40
-8.268823246790324
 40
-8.268823246790324
 40
-8.268823246790324
 40
-7.121775403209211
 40
-7.121775403209211
 40
-7.121775403209211
 40
-5.332336009370444
 40
-3.594248314605104
 40
-2.749108168344543
 40
-1.884922955709098
 40
-1.047676823306014
 40
-0.6247475337379003
 40
-0.1840573543565883
 40
-0.1840573543565883
 40
-0.1840573543565883
 40
-0.0163079898344346
 40
-0.0163079898344346
 40
-0.0163079898344346
 40
0.0
 40
0.0
 40
0.0
 40
0.0
 10
1002.67551669021
 20
1224.326994577785
 30
0.0
 41
0.999999524845157
 10
1002.916550754052
 20
1224.327000219437
 30
0.0
 41
0.999999524845157
 10
1003.203905844587
 20
1224.326983944061
 30
0.0
 41
0.999999524845157
 10
1003.573027156103
 20
1224.327103605099
 30
0.0
 41
0.999999524845157
 10
1003.754033074937
 20
1224.326326638373
 30
0.0
 41
0.999999524845157
 10
1003.919860146133
 20
1224.328242837691
 30
0.0
 41
0.999999524845157
 10
1004.029096465971
 20
1224.325434925849
 30
0.0
 41
0.999999524845157
 10
1004.143117204222
 20
1224.302052443602
 30
0.0
 41
0.999999524845157
 10
1004.285727285025
 20
1224.244641073195
 30
0.0
 41
0.999999524845157
 10
1004.459521530436
 20
1224.13031308045
 30
0.0
 41
0.999999524845157
 10
1004.635876339019
 20
1223.971623807449
 30
0.0
 41
0.999999524845157
 10
1004.832790479521
 20
1223.745876375421
 30
0.0
 41
0.999999524845157
 10
1005.038213246117
 20
1223.44873818846
 30
0.0
 41
0.999999524845157
 10
1005.321378203853
 20
1222.934289534972
 30
0.0
 41
0.999999524845157
 10
1005.617356187061
 20
1222.189039101964
 30
0.0
 41
0.999999524845157
 10
1005.866850828891
 20
1221.206482202012
 30
0.0
 41
0.999999524845157
 10
1005.960967597858
 20
1220.51489114552
 30
0.0
 41
0.999999524845157
 10
1005.989938119293
 20
1220.163104216981
 30
0.0
 41
0.999999524845157
 10
1006.009277894957
 20
1219.929230756562
 30
0.0
 41
0.999999524845157
 10
1006.069033347321
 20
1219.717234635773
 30
0.0
 41
0.999999524845157
 10
1006.25340830975
 20
1219.410707256821
 30
0.0
 41
0.999999524845157
 10
1006.371840964536
 20
1219.326989224518
 30
0.0
 41
0.999999524845157
 10
1006.497771259741
 20
1219.326994571622
 30
0.0
 41
0.999999524845157
 10
1009.390261842482
 20
1219.326994589583
 30
0.0
 41
0.999999524845157
 10
1012.282752425222
 20
1219.326994594916
 30
0.0
 41
0.999999524845157
 10
1015.17524300796
 20
1219.326994587622
 30
0.0
 41
0.999999524845157
 10
1019.036192064882
 20
1219.326994572942
 30
0.0
 41
0.999999524845157
 10
1022.897141121806
 20
1219.326994558262
 30
0.0
 41
0.999999524845157
 10
1026.758090178728
 20
1219.326994543582
 30
0.0
 41
0.999999524845157
 10
1026.846312198326
 20
1219.326978911631
 30
0.0
 41
0.9942088042594844
 10
1026.933725162038
 20
1219.338732091646
 30
0.0
 41
0.9942086996797163
 10
1027.018810543694
 20
1219.362049912702
 30
0.0
 41
0.9999992111058522
 10
1027.40922762371
 20
1219.469454265027
 30
0.0
 41
0.8933366331508513
 10
1027.679094031131
 20
1219.771476326107
 30
0.0
 41
0.8933368961155672
 10
1027.742055708005
 20
1220.171472349245
 30
0.0
 41
1.0
 10
1027.834937818618
 20
1220.760490494913
 30
0.0
 41
1.0
 10
1028.211740878805
 20
1221.89279671504
 30
0.0
 41
1.0
 10
1029.132887969611
 20
1223.052534409373
 30
0.0
 41
1.0
 10
1030.070296559061
 20
1223.726353288465
 30
0.0
 41
1.0
 10
1030.842652805698
 20
1224.087129820211
 30
0.0
 41
1.0
 10
1031.531893590631
 20
1224.262615409841
 30
0.0
 41
1.0
 10
1032.095993340953
 20
1224.325561640332
 30
0.0
 41
1.0
 10
1032.384188618891
 20
1224.328004741423
 30
0.0
 41
1.0
 10
1032.531033564816
 20
1224.327531665194
 30
0.0
 41
1.0
 10
1032.58695001862
 20
1224.327532325816
 30
0.0
 41
0.999999999998273
 10
1032.642866479892
 20
1224.327494208914
 30
0.0
 41
0.999999999998273
 10
1032.698782948635
 20
1224.327417314486
 30
0.0
 41
1.0
 10
1032.704218954
 20
1224.327329870137
 30
0.0
 41
0.9999999998057724
 10
1032.693660399432
 20
1224.327067822964
 30
0.0
 41
0.9999999998057724
 10
1032.699096285038
 20
1224.327102562599
 30
0.0
 41
1.0
  0
SPLINE
  5
E7
330
1F
100
AcDbEntity
  8
Miura_Table_9590-01_2D
100
AcDbSpline
210
0.0
220
0.0
230
1.0
 70
     8
 71
     3
 72
    12
 73
     8
 74
     0
 42
0.0000000001
 43
0.0000000001
 40
0.0
 40
0.0
 40
0.0
 40
0.0
 40
0.0783339057735422
 40
0.1543752911000592
 40
0.3458434999895036
 40
0.5566067183729958
 40
0.745730808072604
 40
0.745730808072604
 40
0.745730808072604
 40
0.745730808072604
 10
1222.591099677401
 20
851.2685472159212
 30
0.0
 10
1222.579665444706
 20
851.2919888994934
 30
0.0
 10
1222.55504555467
 20
851.337472010518
 30
0.0
 10
1222.478107914141
 20
851.4243157879775
 30
0.0
 10
1222.346156568745
 20
851.5156849458763
 30
0.0
 10
1222.165113081489
 20
851.5959456677292
 30
0.0
 10
1222.032739718008
 20
851.6198284156039
 30
0.0
 10
1221.969687060461
 20
851.6213993227209
 30
0.0
  0
SPLINE
  5
E8
330
1F
100
AcDbEntity
  8
Miura_Table_9590-01_2D
100
AcDbSpline
210
0.0
220
0.0
230
1.0
 70
    24
 71
     2
 72
     6
 73
     3
 74
     0
 42
0.0000000001
 43
0.0000000001
 40
0.0
 40
0.0
 40
0.0
 40
0.4432407273142656
 40
0.4432407273142656
 40
0.4432407273142656
 10
1222.789339998882
 20
850.8720681302273
 30
0.0
 10
1222.690219838141
 20
851.0703076730742
 30
0.0
 10
1222.591099677401
 20
851.2685472159212
 30
0.0
  0
SPLINE
  5
E9
330
1F
100
AcDbEntity
  8
Miura_Table_9590-01_2D
100
AcDbSpline
210
0.0
220
0.0
230
1.0
 70
     8
 71
     3
 72
    16
 73
    12
 74
     0
 42
0.0000000001
 43
0.0000000001
 40
0.0
 40
0.0
 40
0.0
 40
0.0
 40
0.1493864394124331
 40
0.2793559016564561
 40
0.5550513490148504
 40
0.8392020165335362
 40
1.095708427849608
 40
1.300439052038603
 40
1.480820944991987
 40
1.644774875639234
 40
1.839449949945527
 40
1.839449949945527
 40
1.839449949945527
 40
1.839449949945527
 10
1222.049876298979
 20
849.3720767620789
 30
0.0
 10
1222.09167742273
 20
849.3991511178228
 30
0.0
 10
1222.16939746581
 20
849.4505169271597
 30
0.0
 10
1222.316215938692
 20
849.5633186391135
 30
0.0
 10
1222.483640588779
 20
849.7216132493534
 30
0.0
 10
1222.657269229691
 20
849.931803783646
 30
0.0
 10
1222.788318097388
 20
850.1438047037516
 30
0.0
 10
1222.868273055879
 20
850.3431438661348
 30
0.0
 10
1222.8968423131
 20
850.5255989884743
 30
0.0
 10
1222.870928110296
 20
850.705577516706
 30
0.0
 10
1222.818496677807
 20
850.8142950581669
 30
0.0
 10
1222.789339998882
 20
850.8720681302273
 30
0.0
  0
SPLINE
  5
EA
330
1F
100
AcDbEntity
  8
Miura_Table_9590-01_2D
100
AcDbSpline
210
0.0
220
0.0
230
1.0
 70
     8
 71
     3
 72
    12
 73
     8
 74
     0
 42
0.0000000001
 43
0.0000000001
 40
0.0
 40
0.0
 40
0.0
 40
0.0
 40
3.067510030199397
 40
6.111020822346612
 40
12.08884398209748
 40
18.2299956540746
 40
24.32566676622235
 40
24.32566676622235
 40
24.32566676622235
 40
24.32566676622235
 10
1199.055066791005
 20
842.534825854178
 30
0.0
 10
1200.077576937115
 20
842.5347615925293
 30
0.0
 10
1202.114548583709
 20
842.6099511855518
 30
0.0
 10
1206.122755231202
 20
843.0493444843646
 30
0.0
 10
1211.071543097969
 20
844.1375082613283
 30
0.0
 10
1216.767689919071
 20
846.2854703457849
 30
0.0
 10
1220.346290609492
 20
848.2646876529507
 30
0.0
 10
1222.049876298979
 20
849.3720767620789
 30
0.0
  0
SPLINE
  5
EB
330
1F
100
AcDbEntity
  8
Miura_Table_9590-01_2D
100
AcDbSpline
210
0.0
220
0.0
230
1.0
 70
     8
 71
     3
 72
    11
 73
     7
 74
     0
 42
0.0000000001
 43
0.0000000001
 40
0.0
 40
0.0
 40
0.0
 40
0.0
 40
3.125176035128539
 40
6.095599655767289
 40
12.14563159808566
 40
24.32538406836998
 40
24.32538406836998
 40
24.32538406836998
 40
24.32538406836998
 10
1176.060433272865
 20
849.3720279022732
 30
0.0
 10
1176.933875591828
 20
848.804231057851
 30
0.0
 10
1178.678053106116
 20
847.7589427720075
 30
0.0
 10
1182.292876222495
 20
845.9308767304972
 30
0.0
 10
1188.919405365178
 20
843.4227890330585
 30
0.0
 10
1194.995021379917
 20
842.5344675161352
 30
0.0
 10
1199.055066791005
 20
842.534825854178
 30
0.0
  0
SPLINE
  5
EC
330
1F
100
AcDbEntity
  8
Miura_Table_9590-01_2D
100
AcDbSpline
210
0.0
220
0.0
230
1.0
 70
     8
 71
     3
 72
    14
 73
    10
 74
     0
 42
0.0000000001
 43
0.0000000001
 40
0.0
 40
0.0
 40
0.0
 40
0.0
 40
0.1878442759905428
 40
0.377592525096296
 40
0.6122387701456025
 40
0.8889786116689307
 40
1.581028401171428
 40
1.879577165562933
 40
2.132521340345825
 40
2.132521340345825
 40
2.132521340345825
 40
2.132521340345825
 10
1174.5708426571
 20
850.8719943702431
 30
0.0
 10
1174.598440835604
 20
850.8157449334294
 30
0.0
 10
1174.65769168184
 20
850.7043547131602
 30
0.0
 10
1174.776057329393
 20
850.5377794971059
 30
0.0
 10
1174.926785973227
 20
850.3589853873139
 30
0.0
 10
1175.204107468854
 20
850.0689591588182
 30
0.0
 10
1175.516001441296
 20
849.7834615803208
 30
0.0
 10
1175.83829796578
 20
849.5226229993134
 30
0.0
 10
1175.989301809336
 20
849.4174781542577
 30
0.0
 10
1176.060433272865
 20
849.3720279022732
 30
0.0
  0
SPLINE
  5
ED
330
1F
100
AcDbEntity
  8
Miura_Table_9590-01_2D
100
AcDbSpline
210
0.0
220
0.0
230
1.0
 70
    24
 71
     2
 72
     6
 73
     3
 74
     0
 42
0.0000000001
 43
0.0000000001
 40
0.0
 40
0.0
 40
0.0
 40
0.443128027777323
 40
0.443128027777323
 40
0.443128027777323
 10
1174.372605223469
 20
851.2684716188087
 30
0.0
 10
1174.471723940285
 20
851.0702329945259
 30
0.0
 10
1174.5708426571
 20
850.8719943702431
 30
0.0
  0
SPLINE
  5
EE
330
1F
100
AcDbEntity
  8
Miura_Table_9590-01_2D
100
AcDbSpline
210
0.0
220
0.0
230
1.0
 70
     8
 71
     3
 72
    13
 73
     9
 74
     0
 42
0.0000000001
 43
0.0000000001
 40
0.0
 40
0.0
 40
0.0
 40
0.0
 40
0.0876034865927682
 40
0.1633834879133184
 40
0.3033602437049218
 40
0.4266564189877514
 40
0.487622525187018
 40
0.563040151376382
 40
0.563040151376382
 40
0.563040151376382
 40
0.563040151376382
 10
1174.646782995229
 20
851.6216027322052
 30
0.0
 10
1174.617739164669
 20
851.6208682297963
 30
0.0
 10
1174.562843530992
 20
851.6167547024311
 30
0.0
 10
1174.465410887541
 20
851.5901795183831
 30
0.0
 10
1174.367885789787
 20
851.5249385236718
 30
0.0
 10
1174.326110725668
 20
851.4189502030047
 30
0.0
 10
1174.341528641647
 20
851.3318104913751
 30
0.0
 10
1174.36116264917
 20
851.2910822190377
 30
0.0
 10
1174.372605223469
 20
851.2684716188087
 30
0.0
  0
SPLINE
  5
EF
330
1F
100
AcDbEntity
  8
Miura_Table_9590-01_2D
100
AcDbSpline
210
0.0
220
0.0
230
1.0
 70
    12
 71
     3
 72
    26
 73
    22
 74
     0
 42
0.0000000001
 43
0.0000000001
 40
-45.87114236150764
 40
-45.87114236150764
 40
-45.87114236150764
 40
-45.87114236150764
 40
-43.74827143190391
 40
-41.95073232195075
 40
-37.96290779321185
 40
-29.2091905711187
 40
-19.77032179938261
 40
-14.83888187793954
 40
-9.83637658103571
 40
-9.83637658103571
 40
-9.83637658103571
 40
-9.16749384238369
 40
-7.554830330056149
 40
-5.942166817728606
 40
-4.329503305401064
 40
-4.329503305401064
 40
-4.329503305401064
 40
0.0
 40
0.0
 40
0.0
 40
1.489429492300063
 40
1.489429492300063
 40
1.489429492300063
 40
1.489429492300063
 10
1062.145555713029
 20
1173.631689245134
 30
0.0
 41
1.0
 10
1061.870111324725
 20
1174.283448604209
 30
0.0
 41
1.0
 10
1061.33810171192
 20
1175.540142708292
 30
0.0
 41
1.0
 10
1060.377844321211
 20
1177.995171014531
 30
0.0
 41
1.0
 10
1058.777499070231
 20
1182.57138061145
 30
0.0
 41
1.0
 10
1056.788921087997
 20
1189.698069514203
 30
0.0
 41
1.0
 10
1055.24746436935
 20
1197.254613211679
 30
0.0
 41
1.0
 10
1054.251538364963
 20
1203.635586564325
 30
0.0
 41
1.0
 10
1053.840770114811
 20
1206.921783693765
 30
0.0
 41
1.0
 10
1053.657929273195
 20
1208.57920038154
 30
0.0
 41
1.0
 10
1053.633536512848
 20
1208.800316012505
 30
0.0
 41
1.0
 10
1053.551479299159
 20
1209.554613492453
 30
0.0
 41
1.0
 10
1053.418550746653
 20
1210.84193238345
 30
0.0
 41
1.0
 10
1053.266617238749
 20
1212.443685198415
 30
0.0
 41
1.0
 10
1053.176665444178
 20
1213.51185324491
 30
0.0
 41
1.0
 10
1053.134929801909
 20
1214.046276503117
 30
0.0
 41
1.0
 10
1053.022561791472
 20
1215.485144458461
 30
0.0
 41
0.999887491868595
 10
1052.936646276711
 20
1216.925833906958
 30
0.0
 41
0.999887491868595
 10
1052.877212256207
 20
1218.367858580773
 30
0.0
 41
1.0
 10
1052.854615339598
 20
1218.916118836884
 30
0.0
 41
0.8233637531700498
 10
1052.466556562636
 20
1219.304075425557
 30
0.0
 41
0.8233637531700498
 10
1051.91867166306
 20
1219.326146759523
 30
0.0
 41
1.0
  0
SPLINE
  5
F0
330
1F
100
AcDbEntity
  8
Miura_Table_9590-01_2D
100
AcDbSpline
210
0.0
220
0.0
230
1.0
 70
     8
 71
     3
 72
    15
 73
    11
 74
     0
 42
0.0000000001
 43
0.0000000001
 40
0.0
 40
0.0
 40
0.0
 40
0.0
 40
2.804057442577903
 40
5.813535061115351
 40
7.520094063378131
 40
12.01795169840552
 40
16.91927281030366
 40
18.14949344777262
 40
19.34253087904432
 40
21.65307934478401
 40
21.65307934478401
 40
21.65307934478401
 40
21.65307934478401
 10
1071.414941106731
 20
1153.976664555128
 30
0.0
 10
1070.996939260409
 20
1154.812668248293
 30
0.0
 10
1070.095610841318
 20
1156.621748323957
 30
0.0
 10
1068.970132821662
 20
1158.861562022184
 30
0.0
 10
1067.602653267781
 20
1161.611662838611
 30
0.0
 10
1065.993688075717
 20
1164.945763275059
 30
0.0
 10
1064.513687198766
 20
1168.165226245409
 30
0.0
 10
1063.52738422114
 20
1170.39867278384
 30
0.0
 10
1062.895150739869
 20
1171.844446643311
 30
0.0
 10
1062.445369935775
 20
1172.922265731875
 30
0.0
 10
1062.145555713029
 20
1173.631689245134
 30
0.0
  0
SPLINE
  5
F1
330
1F
100
AcDbEntity
  8
Miura_Table_9590-01_2D
100
AcDbSpline
210
0.0
220
0.0
230
1.0
 70
    24
 71
     2
 72
     6
 73
     3
 74
     0
 42
0.0000000001
 43
0.0000000001
 40
0.0
 40
0.0
 40
0.0
 40
338.0425444558308
 40
338.0425444558308
 40
338.0425444558308
 10
1222.592162769134
 20
851.6222210412132
 30
0.0
 10
1147.003551937932
 20
1002.79944279817
 30
0.0
 10
1071.414941106731
 20
1153.976664555128
 30
0.0
  0
LINE
  5
F2
330
1F
100
AcDbEntity
  8
Miura_Table_9590-01_2D
100
AcDbLine
 10
1174.124238411622
 20
851.621757434373
 30
0.0
 11
1222.592162769134
 21
851.6222210412132
 31
0.0
  0
SPLINE
  5
F3
330
1F
100
AcDbEntity
  8
Miura_Table_9590-01_2D
100
AcDbSpline
210
0.0
220
0.0
230
1.0
 70
    24
 71
     2
 72
     6
 73
     3
 74
     0
 42
0.0000000001
 43
0.0000000001
 40
0.0
 40
0.0
 40
0.0
 40
327.5547231258826
 40
327.5547231258826
 40
327.5547231258826
 10
1027.637313032798
 20
1144.595608375259
 30
0.0
 10
1100.88077572221
 20
998.108682904816
 30
0.0
 10
1174.124238411622
 20
851.621757434373
 30
0.0
  0
SPLINE
  5
F4
330
1F
100
AcDbEntity
  8
Miura_Table_9590-01_2D
100
AcDbSpline
210
0.0
220
0.0
230
1.0
 70
     8
 71
     3
 72
    46
 73
    42
 74
     0
 42
0.0000000001
 43
0.0000000001
 40
0.0
 40
0.0
 40
0.0
 40
0.0
 40
4.445528572919531
 40
9.136184748431083
 40
13.56629843505467
 40
20.52288534708523
 40
22.80023416032957
 40
26.47397545349463
 40
30.12593374789432
 40
33.12390876023884
 40
33.12390876023884
 40
33.12390876023884
 40
33.44213680694137
 40
33.79291129403629
 40
34.65617602833069
 40
35.95951821029371
 40
35.95951821029371
 40
35.95951821029371
 40
37.26413056451781
 40
38.4014712048069
 40
40.57038699906815
 40
42.7593198436251
 40
44.84110739718989
 40
45.77561526079327
 40
46.6545373728493
 40
47.46896338621529
 40
48.21895529454341
 40
48.90499283523491
 40
49.56381445895246
 40
50.22094840567009
 40
51.02557524063457
 40
51.02557524063457
 40
51.02557524063457
 40
56.82679662646953
 40
56.82679662646953
 40
56.82679662646953
 40
57.82809886771776
 40
58.78296253335561
 40
60.89975999567615
 40
62.90994723231162
 40
65.188593675824
 40
65.188593675824
 40
65.188593675824
 40
65.188593675824
 10
1014.694760588375
 20
1202.78819517505
 30
0.0
 10
1014.59520732495
 20
1201.309701054893
 30
0.0
 10
1014.375455959449
 20
1198.272208200597
 30
0.0
 10
1014.00855630302
 20
1193.764981793204
 30
0.0
 10
1013.537604051399
 20
1188.426574240867
 30
0.0
 10
1013.113464262553
 20
1183.891675023121
 30
0.0
 10
1012.723776183601
 20
1179.606795003646
 30
0.0
 10
1012.447742399947
 20
1176.41768910576
 30
0.0
 10
1012.190190773972
 20
1172.986001476225
 30
0.0
 10
1012.068479785465
 20
1170.769219269716
 30
0.0
 10
1012.030243088056
 20
1169.770612875148
 30
0.0
 10
1012.026184440029
 20
1169.664615439489
 30
0.0
 10
1012.018100799995
 20
1169.441757927997
 30
0.0
 10
1012.003186659597
 20
1168.931220888271
 30
0.0
 10
1011.982021387727
 20
1168.092352993737
 30
0.0
 10
1011.973419180159
 20
1167.370172428781
 30
0.0
 10
1011.973461717613
 20
1166.935718063611
 30
0.0
 10
1011.973073398548
 20
1166.500881442276
 30
0.0
 10
1011.983515208978
 20
1165.686704011796
 30
0.0
 10
1012.081123509879
 20
1164.15236742843
 30
0.0
 10
1012.361388107892
 20
1162.338497340792
 30
0.0
 10
1012.961432220911
 20
1160.272791775248
 30
0.0
 10
1013.666429012761
 20
1158.682385309442
 30
0.0
 10
1014.333569724398
 20
1157.566774040377
 30
0.0
 10
1014.849769832814
 20
1156.857989486695
 30
0.0
 10
1015.396066114196
 20
1156.252103340968
 30
0.0
 10
1015.964576834509
 20
1155.760158076188
 30
0.0
 10
1016.553241201614
 20
1155.381056412364
 30
0.0
 10
1017.165046263645
 20
1155.109274090966
 30
0.0
 10
1017.849737169722
 20
1154.925958877541
 30
0.0
 10
1018.334382785968
 20
1154.867178686886
 30
0.0
 10
1018.600808614885
 20
1154.837782918623
 30
0.0
 10
1020.523509100731
 20
1154.623786645833
 30
0.0
 10
1022.733760766408
 20
1153.726143070645
 30
0.0
 10
1023.683931695793
 20
1152.042066727082
 30
0.0
 10
1023.847586963115
 20
1151.751176543688
 30
0.0
 10
1024.166515591558
 20
1151.182435568408
 30
0.0
 10
1024.821173545881
 20
1149.993032717674
 30
0.0
 10
1025.623347677755
 20
1148.501030208245
 30
0.0
 10
1026.615373068266
 20
1146.610226516555
 30
0.0
 10
1027.297635567787
 20
1145.274963305706
 30
0.0
 10
1027.637313032798
 20
1144.595608375259
 30
0.0
  0
SPLINE
  5
F5
330
1F
100
AcDbEntity
  8
Miura_Table_9590-01_2D
100
AcDbSpline
210
0.0
220
0.0
230
1.0
 70
     8
 71
     3
 72
    13
 73
     9
 74
     0
 42
0.0000000001
 43
0.0000000001
 40
0.0
 40
0.0
 40
0.0
 40
0.0
 40
1.195776873000196
 40
2.341423735031693
 40
4.878196780698156
 40
8.059055609734553
 40
9.89647813407859
 40
11.23169972175378
 40
11.23169972175378
 40
11.23169972175378
 40
11.23169972175378
 10
1015.310404597155
 20
1214.007749189442
 30
0.0
 10
1015.294860525154
 20
1213.609459983308
 30
0.0
 10
1015.262932613263
 20
1212.829637478173
 30
0.0
 10
1015.189190219147
 20
1211.2052396069
 30
0.0
 10
1015.070567564224
 20
1208.920540946545
 30
0.0
 10
1014.92300859191
 20
1206.406506363156
 30
0.0
 10
1014.792566897672
 20
1204.292693499603
 30
0.0
 10
1014.724661615823
 20
1203.232263925264
 30
0.0
 10
1014.694760588374
 20
1202.78819517505
 30
0.0
  0
SPLINE
  5
F6
330
1F
100
AcDbEntity
  8
Miura_Table_9590-01_2D
100
AcDbSpline
210
0.0
220
0.0
230
1.0
 70
    12
 71
     2
 72
     6
 73
     3
 74
     0
 42
0.0000000001
 43
0.0000000001
 40
0.0
 40
0.0
 40
0.0
 40
4.338894157400504
 40
4.338894157400504
 40
4.338894157400504
 10
1015.439589837639
 20
1218.347291658164
 30
0.0
 41
1.0
 10
1015.395009801517
 20
1216.175607114772
 30
0.0
 41
0.999957710116485
 10
1015.310404597155
 20
1214.007749189442
 30
0.0
 41
1.0
  0
SPLINE
  5
F7
330
1F
100
AcDbEntity
  8
Miura_Table_9590-01_2D
100
AcDbSpline
210
0.0
220
0.0
230
1.0
 70
    12
 71
     2
 72
     6
 73
     3
 74
     0
 42
0.0000000001
 43
0.0000000001
 40
0.0
 40
0.0
 40
0.0
 40
1.517675704074519
 40
1.517675704074519
 40
1.517675704074519
 10
1016.407303300427
 20
1219.326474588347
 30
0.0
 41
1.0
 10
1015.459051104918
 20
1219.295333360709
 30
0.0
 41
0.7256366645658145
 10
1015.439589837639
 20
1218.347291658164
 30
0.0
 41
1.0
  0
POLYLINE
  5
F8
330
1F
100
AcDbEntity
  8
Miura_Table_9590-01_2D
100
AcDb2dPolyline
 66
     1
 10
0.0
 20
0.0
 30
0.0
  0
VERTEX
  5
F9
330
F8
100
AcDbEntity
  8
Miura_Table_9590-01_2D
100
AcDbVertex
100
AcDb2dVertex
 10
664.9900882826573
 20
851.6220755699167
 30
0.0
  0
VERTEX
  5
FA
330
F8
100
AcDbEntity
  8
Miura_Table_9590-01_2D
100
AcDbVertex
100
AcDb2dVertex
 10
707.6286276355663
 20
851.6220754790297
 30
0.0
  0
SEQEND
  5
FB
330
F8
100
AcDbEntity
  8
Miura_Table_9590-01_2D
  0
SPLINE
  5
FC
330
1F
100
AcDbEntity
  8
Miura_Table_9590-01_2D
100
AcDbSpline
210
0.0
220
0.0
230
1.0
 70
    24
 71
     2
 72
     6
 73
     3
 74
     0
 42
0.0000000001
 43
0.0000000001
 40
0.0
 40
0.0
 40
0.0
 40
0.0003644189914382
 40
0.0003644189914382
 40
0.0003644189914382
 10
1002.675728548992
 20
1224.326994577842
 30
0.0
 10
1002.675546339496
 20
1224.326994577817
 30
0.0
 10
1002.675364130001
 20
1224.326994577792
 30
0.0
  0
SPLINE
  5
FD
330
1F
100
AcDbEntity
  8
Miura_Table_9590-01_2D
100
AcDbSpline
210
0.0
220
0.0
230
1.0
 70
     8
 71
     3
 72
    12
 73
     8
 74
     0
 42
0.0000000001
 43
0.0000000001
 40
0.0
 40
0.0
 40
0.0
 40
0.0
 40
0.1167120639292131
 40
0.2430944609352435
 40
0.5000268890606814
 40
0.7758895689378357
 40
1.056331722181715
 40
1.056331722181715
 40
1.056331722181715
 40
1.056331722181715
 10
1014.739398015948
 20
1219.32633106252
 30
0.0
 10
1014.778262720509
 20
1219.324762854424
 30
0.0
 10
1014.858987280383
 20
1219.315005459938
 30
0.0
 10
1015.019583862501
 20
1219.268497204968
 30
0.0
 10
1015.212432323218
 20
1219.157382215402
 30
0.0
 10
1015.396636473001
 20
1218.954526864249
 30
0.0
 10
1015.48059123165
 20
1218.78743098064
 30
0.0
 10
1015.51118131548
 20
1218.699078688473
 30
0.0
  0
ARC
  5
FE
330
1F
100
AcDbEntity
  8
Miura_Table_9590-01_2D
100
AcDbCircle
 10
1990.815657062558
 20
1219.926330983047
 30
0.0
 40
10.01354662635185
100
AcDbArc
 50
180.0
 51
183.4313498469807
  0
SPLINE
  5
FF
330
1F
100
AcDbEntity
  8
Miura_Table_9590-01_2D
100
AcDbSpline
210
0.0
220
0.0
230
1.0
 70
    12
 71
     2
 72
     6
 73
     3
 74
     0
 42
0.0000000001
 43
0.0000000001
 40
-3.332521385645805
 40
-3.332521385645805
 40
-3.332521385645805
 40
0.0
 40
0.0
 40
0.0
 10
1984.152583822476
 20
1219.326994620897
 30
0.0
 41
1.0
 10
1982.486323129652
 20
1219.326994641181
 30
0.0
 41
0.9999999999999998
 10
1980.82006243683
 20
1219.3269945865
 30
0.0
 41
1.0
  0
SPLINE
  5
100
330
1F
100
AcDbEntity
  8
Miura_Table_9590-01_2D
100
AcDbSpline
210
0.0
220
0.0
230
1.0
 70
    24
 71
     2
 72
     6
 73
     3
 74
     0
 42
0.0000000001
 43
0.0000000001
 40
-8.348680839593044
 40
-8.348680839593044
 40
-8.348680839593044
 40
0.0
 40
0.0
 40
0.0
 10
1992.501264662068
 20
1219.326994592029
 30
0.0
 10
1988.326924242272
 20
1219.326994606463
 30
0.0
 10
1984.152583822476
 20
1219.326994620897
 30
0.0
  0
SPLINE
  5
101
330
1F
100
AcDbEntity
  8
Miura_Table_9590-01_2D
100
AcDbSpline
210
0.0
220
0.0
230
1.0
 70
    24
 71
     2
 72
     6
 73
     3
 74
     0
 42
0.0000000001
 43
0.0000000001
 40
-0.0160983755549751
 40
-0.0160983755549751
 40
-0.0160983755549751
 40
0.0
 40
0.0
 40
0.0
 10
1992.517363037623
 20
1219.326994591933
 30
0.0
 10
1992.509313849846
 20
1219.326994591981
 30
0.0
 10
1992.501264662068
 20
1219.326994592029
 30
0.0
  0
SPLINE
  5
102
330
1F
100
AcDbEntity
  8
Miura_Table_9590-01_2D
100
AcDbSpline
210
0.0
220
0.0
230
1.0
 70
    12
 71
     3
 72
    10
 73
     6
 74
     0
 42
0.0000000001
 43
0.0000000001
 40
-1.41140173157308
 40
-1.41140173157308
 40
-1.41140173157308
 40
-1.41140173157308
 40
-0.7080051891948135
 40
-0.7080051891948135
 40
-0.0049548717152337
 40
-0.0049548717152337
 40
-0.0049548717152337
 40
-0.0049548717152337
 10
1993.36330669691
 20
1220.163104265333
 30
0.0
 41
1.0
 10
1993.329612997156
 20
1219.929230804913
 30
0.0
 41
1.0
 10
1993.225188066281
 20
1219.717234684124
 30
0.0
 41
1.0
 10
1992.913748778609
 20
1219.410707305172
 30
0.0
 41
1.0
 10
1992.718078814384
 20
1219.326989272869
 30
0.0
 41
1.0
 10
1992.517363037623
 20
1219.326994591933
 30
0.0
 41
1.0
  0
SPLINE
  5
103
330
1F
100
AcDbEntity
  8
Miura_Table_9590-01_2D
100
AcDbSpline
210
0.0
220
0.0
230
1.0
 70
     8
 71
     3
 72
    18
 73
    14
 74
     0
 42
0.0000000001
 43
0.0000000001
 40
-14.64921461756716
 40
-14.64921461756716
 40
-14.64921461756716
 40
-14.64921461756716
 40
-8.184836209513707
 40
-7.290264732586142
 40
-6.899780132333247
 40
-6.604817185447027
 40
-6.281926508383727
 40
-5.91772510768846
 40
-5.25048406050812
 40
-3.984914730732004
 40
-2.69671351258406
 40
-1.37770462440535
 40
0.0
 40
0.0
 40
0.0
 40
0.0
 10
2005.801986789319
 20
1224.326994626131
 30
0.0
 10
2003.647282163969
 20
1224.326903161039
 30
0.0
 10
2001.194424251427
 20
1224.327148581041
 30
0.0
 10
1998.611375188224
 20
1224.326882038367
 30
0.0
 10
1998.084755782458
 20
1224.327281774054
 30
0.0
 10
1997.748563743376
 20
1224.328051491435
 30
0.0
 10
1997.421663846553
 20
1224.308687513966
 30
0.0
 10
1996.973962321332
 20
1224.247151832115
 30
0.0
 10
1996.230018720242
 20
1224.058412280238
 30
0.0
 10
1995.262134060976
 20
1223.566444238527
 30
0.0
 10
1994.325957058193
 20
1222.657126741708
 30
0.0
 10
1993.662707602391
 20
1221.49265852368
 30
0.0
 10
1993.428701919455
 20
1220.617603212337
 30
0.0
 10
1993.36330669691
 20
1220.163104265333
 30
0.0
  0
SPLINE
  5
104
330
1F
100
AcDbEntity
  8
Miura_Table_9590-01_2D
100
AcDbSpline
210
0.0
220
0.0
230
1.0
 70
     8
 71
     3
 72
    18
 73
    14
 74
     0
 42
0.0000000001
 43
0.0000000001
 40
0.0
 40
0.0
 40
0.0
 40
0.0
 40
1.377704624405373
 40
2.696713512584107
 40
3.984914730732072
 40
5.250484060508209
 40
5.917725107688561
 40
6.281926508383835
 40
6.60481718544714
 40
6.899780132333365
 40
7.290264732586267
 40
8.184836209513849
 40
14.64921461756716
 40
14.64921461756716
 40
14.64921461756716
 40
14.64921461756716
 10
2018.240666881729
 20
1220.163104265333
 30
0.0
 10
2018.175271659184
 20
1220.617603212337
 30
0.0
 10
2017.941265976248
 20
1221.49265852368
 30
0.0
 10
2017.278016520446
 20
1222.657126741708
 30
0.0
 10
2016.341839517663
 20
1223.566444238527
 30
0.0
 10
2015.373954858397
 20
1224.058412280238
 30
0.0
 10
2014.630011257307
 20
1224.247151832115
 30
0.0
 10
2014.182309732086
 20
1224.308687513966
 30
0.0
 10
2013.855409835263
 20
1224.328051491435
 30
0.0
 10
2013.519217796181
 20
1224.327281774054
 30
0.0
 10
2012.992598390415
 20
1224.326882038367
 30
0.0
 10
2010.409549327212
 20
1224.327148581041
 30
0.0
 10
2007.95669141467
 20
1224.326903161039
 30
0.0
 10
2005.801986789319
 20
1224.326994626131
 30
0.0
  0
SPLINE
  5
105
330
1F
100
AcDbEntity
  8
Miura_Table_9590-01_2D
100
AcDbSpline
210
0.0
220
0.0
230
1.0
 70
    12
 71
     3
 72
    10
 73
     6
 74
     0
 42
0.0000000001
 43
0.0000000001
 40
0.0049548717152337
 40
0.0049548717152337
 40
0.0049548717152337
 40
0.0049548717152337
 40
0.7080051891948135
 40
0.7080051891948135
 40
1.41140173157308
 40
1.41140173157308
 40
1.41140173157308
 40
1.41140173157308
 10
2019.086610541015
 20
1219.326994591933
 30
0.0
 41
1.0
 10
2018.885894764255
 20
1219.326989272869
 30
0.0
 41
1.0
 10
2018.69022480003
 20
1219.410707305172
 30
0.0
 41
1.0
 10
2018.378785512358
 20
1219.717234684124
 30
0.0
 41
1.0
 10
2018.274360581483
 20
1219.929230804913
 30
0.0
 41
1.0
 10
2018.240666881729
 20
1220.163104265333
 30
0.0
 41
1.0
  0
SPLINE
  5
106
330
1F
100
AcDbEntity
  8
Miura_Table_9590-01_2D
100
AcDbSpline
210
0.0
220
0.0
230
1.0
 70
    24
 71
     2
 72
     6
 73
     3
 74
     0
 42
0.0000000001
 43
0.0000000001
 40
0.0
 40
0.0
 40
0.0
 40
0.0160983755549751
 40
0.0160983755549751
 40
0.0160983755549751
 10
2019.10270891657
 20
1219.326994592029
 30
0.0
 10
2019.094659728793
 20
1219.326994591981
 30
0.0
 10
2019.086610541015
 20
1219.326994591933
 30
0.0
  0
SPLINE
  5
107
330
1F
100
AcDbEntity
  8
Miura_Table_9590-01_2D
100
AcDbSpline
210
0.0
220
0.0
230
1.0
 70
    24
 71
     2
 72
     6
 73
     3
 74
     0
 42
0.0000000001
 43
0.0000000001
 40
0.0
 40
0.0
 40
0.0
 40
8.348680839593044
 40
8.348680839593044
 40
8.348680839593044
 10
2027.451389756163
 20
1219.326994620897
 30
0.0
 10
2023.277049336367
 20
1219.326994606463
 30
0.0
 10
2019.10270891657
 20
1219.326994592029
 30
0.0
  0
SPLINE
  5
108
330
1F
100
AcDbEntity
  8
Miura_Table_9590-01_2D
100
AcDbSpline
210
0.0
220
0.0
230
1.0
 70
    12
 71
     2
 72
     6
 73
     3
 74
     0
 42
0.0000000001
 43
0.0000000001
 40
0.0
 40
0.0
 40
0.0
 40
3.332521385645805
 40
3.332521385645805
 40
3.332521385645805
 10
2030.783911141809
 20
1219.3269945865
 30
0.0
 41
1.0
 10
2029.117650448987
 20
1219.326994641181
 30
0.0
 41
0.9999999999999998
 10
2027.451389756163
 20
1219.326994620897
 30
0.0
 41
1.0
  0
ARC
  5
109
330
1F
100
AcDbEntity
  8
Miura_Table_9590-01_2D
100
AcDbCircle
 10
2020.788316516081
 20
1219.926330983047
 30
0.0
 40
10.01354662635185
100
AcDbArc
 50
356.5686501530192
 51
0.0
  0
SPLINE
  5
10A
330
1F
100
AcDbEntity
  8
Miura_Table_9590-01_2D
100
AcDbSpline
210
0.0
220
0.0
230
1.0
 70
    12
 71
     3
 72
    12
 73
     8
 74
     0
 42
0.0000000001
 43
0.0000000001
 40
-0.5262507170806857
 40
-0.5262507170806857
 40
-0.5262507170806857
 40
-0.5262507170806857
 40
-0.5145170103963779
 40
-0.5145170103963779
 40
-0.2542829628112115
 40
-0.2542829628112115
 40
-0.0317448945959232
 40
-0.0317448945959232
 40
-0.0317448945959232
 40
-0.0317448945959232
 10
1984.67477761551
 20
1219.072326953496
 30
0.0
 41
1.0
 10
1984.672300937541
 20
1219.076763691461
 30
0.0
 41
1.0
 10
1984.66980960012
 20
1219.081132628002
 30
0.0
 41
1.0
 10
1984.611750742781
 20
1219.180780619096
 30
0.0
 41
1.0
 10
1984.552636673961
 20
1219.240909079292
 30
0.0
 41
1.0
 10
1984.449080433048
 20
1219.308727773817
 30
0.0
 41
1.0
 10
1984.403479212865
 20
1219.323203590444
 30
0.0
 41
1.0
 10
1984.359958279562
 20
1219.326332246892
 30
0.0
 41
1.0
  0
SPLINE
  5
10B
330
1F
100
AcDbEntity
  8
Miura_Table_9590-01_2D
100
AcDbSpline
210
0.0
220
0.0
230
1.0
 70
    12
 71
     3
 72
    18
 73
    14
 74
     0
 42
0.0000000001
 43
0.0000000001
 40
-17.08061118246446
 40
-17.08061118246446
 40
-17.08061118246446
 40
-17.08061118246446
 40
-15.57895392647034
 40
-15.57895392647034
 40
-15.57895392647034
 40
-11.24807156559795
 40
-11.24807156559795
 40
-11.24807156559795
 40
-8.873594413233326
 40
-6.279800604855796
 40
-3.187801552011507
 40
-1.394045745757029
 40
0.0
 40
0.0
 40
0.0
 40
0.0
 10
1985.30773626378
 20
1219.326420623478
 30
0.0
 41
1.0
 10
1984.753887125159
 20
1219.307733186107
 30
0.0
 41
0.8207490813200228
 10
1984.361699954458
 20
1218.916047778194
 30
0.0
 41
0.8207490813200228
 10
1984.34207448361
 20
1218.361994307343
 30
0.0
 41
1.0
 10
1984.290659062687
 20
1216.918956019313
 30
0.0
 41
0.9999156577956789
 10
1984.21628432987
 20
1215.476835880248
 30
0.0
 41
0.9999156577956789
 10
1984.118969103949
 20
1214.035998784922
 30
0.0
 41
1.0
 10
1984.065727161177
 20
1213.245650650298
 30
0.0
 41
1.0
 10
1983.941652356052
 20
1211.59416688131
 30
0.0
 41
1.0
 10
1983.701541062372
 20
1208.918102897038
 30
0.0
 41
1.0
 10
1983.450501115195
 20
1206.437562897532
 30
0.0
 41
1.0
 10
1983.226519603025
 20
1204.356310042997
 30
0.0
 41
1.0
 10
1983.108297601918
 20
1203.298169168665
 30
0.0
 41
1.0
 10
1983.054529801002
 20
1202.836606265429
 30
0.0
 41
1.0
  0
SPLINE
  5
10C
330
1F
100
AcDbEntity
  8
Miura_Table_9590-01_2D
100
AcDbSpline
210
0.0
220
0.0
230
1.0
 70
     8
 71
     3
 72
    16
 73
    12
 74
     0
 42
0.0000000001
 43
0.0000000001
 40
-33.3642801434906
 40
-33.3642801434906
 40
-33.3642801434906
 40
-33.3642801434906
 40
-24.17426881783292
 40
-19.70973193739507
 40
-17.41415730793448
 40
-12.69286067967022
 40
-10.39643749466709
 40
-6.695123544693319
 40
-3.023047667395003
 40
-1.441026840298903
 40
0.0
 40
0.0
 40
0.0
 40
0.0
 10
1983.054529801002
 20
1202.836606265429
 30
0.0
 10
1982.700070593139
 20
1199.793795916599
 30
0.0
 10
1982.0909474689
 20
1195.282751020473
 30
0.0
 10
1981.286828725961
 20
1190.027198565597
 30
0.0
 10
1980.689319180757
 20
1186.246969492009
 30
0.0
 10
1980.195532013606
 20
1183.182078418517
 30
0.0
 10
1979.640104431666
 20
1179.652471342642
 30
0.0
 10
1979.16220095311
 20
1176.464799690598
 30
0.0
 10
1978.77766655954
 20
1173.504226897355
 30
0.0
 10
1978.550655110431
 20
1171.283936467481
 30
0.0
 10
1978.470015075915
 20
1170.279439944178
 30
0.0
 10
1978.437677363993
 20
1169.799963362607
 30
0.0
  0
SPLINE
  5
10D
330
1F
100
AcDbEntity
  8
Miura_Table_9590-01_2D
100
AcDbSpline
210
0.0
220
0.0
230
1.0
 70
     8
 71
     3
 72
    12
 73
     8
 74
     0
 42
0.0000000001
 43
0.0000000001
 40
-2.866008512548971
 40
-2.866008512548971
 40
-2.866008512548971
 40
-2.866008512548971
 40
-2.1803500891602
 40
-1.316467333291305
 40
-0.6436630852735566
 40
-0.3236325452860642
 40
0.0
 40
0.0
 40
0.0
 40
0.0
 10
1978.437677363993
 20
1169.799963362607
 30
0.0
 10
1978.422138719518
 20
1169.57171604835
 30
0.0
 10
1978.394539342204
 20
1169.055933466143
 30
0.0
 10
1978.362793433196
 20
1168.315814369126
 30
0.0
 10
1978.345383445695
 20
1167.697135444078
 30
0.0
 10
1978.339541558352
 20
1167.258340948249
 30
0.0
 10
1978.338316682324
 20
1167.043793538604
 30
0.0
 10
1978.338314489422
 20
1166.935903185071
 30
0.0
  0
SPLINE
  5
10E
330
1F
100
AcDbEntity
  8
Miura_Table_9590-01_2D
100
AcDbSpline
210
0.0
220
0.0
230
1.0
 70
     8
 71
     3
 72
    13
 73
     9
 74
     0
 42
0.0000000001
 43
0.0000000001
 40
-8.067492795701002
 40
-8.067492795701002
 40
-8.067492795701002
 40
-8.067492795701002
 40
-6.929436622567084
 40
-5.933962300934526
 40
-4.0143213514352
 40
-2.037649979843423
 40
-1.015652899145925
 40
0.0
 40
0.0
 40
0.0
 40
0.0
 10
1978.338314489422
 20
1166.935903185071
 30
0.0
 10
1978.33766119538
 20
1166.556560204006
 30
0.0
 10
1978.351348776562
 20
1165.845182592415
 30
0.0
 10
1978.469974425084
 20
1164.498401922646
 30
0.0
 10
1978.814749819056
 20
1162.89850900873
 30
0.0
 10
1979.437168697404
 20
1161.375001290309
 30
0.0
 10
1980.092264122469
 20
1160.20738206324
 30
0.0
 10
1980.472300473468
 20
1159.643452469391
 30
0.0
 10
1980.672436816897
 20
1159.37050916693
 30
0.0
  0
SPLINE
  5
10F
330
1F
100
AcDbEntity
  8
Miura_Table_9590-01_2D
100
AcDbSpline
210
0.0
220
0.0
230
1.0
 70
     8
 71
     3
 72
    13
 73
     9
 74
     0
 42
0.0000000001
 43
0.0000000001
 40
0.0
 40
0.0
 40
0.0
 40
0.0
 40
0.0787536068012881
 40
0.1449423458634473
 40
0.266120321626831
 40
0.3853723078620238
 40
0.4472243187928732
 40
0.5284135023430945
 40
0.5284135023430945
 40
0.5284135023430945
 40
0.5284135023430945
 10
1732.023449159792
 20
851.6216947999819
 30
0.0
 10
1732.049637809132
 20
851.6211315408432
 30
0.0
 10
1732.098157643843
 20
851.6166385205472
 30
0.0
 10
1732.182788528123
 20
851.5890821029764
 30
0.0
 10
1732.259987410892
 20
851.5121267832967
 30
0.0
 10
1732.264864170217
 20
851.4046575600034
 30
0.0
 10
1732.225583073985
 20
851.3256211876826
 30
0.0
 10
1732.195038255886
 20
851.2888001746803
 30
0.0
 10
1732.177104274936
 20
851.2685085035387
 30
0.0
  0
SPLINE
  5
110
330
1F
100
AcDbEntity
  8
Miura_Table_9590-01_2D
100
AcDbSpline
210
0.0
220
0.0
230
1.0
 70
    24
 71
     2
 72
     6
 73
     3
 74
     0
 42
0.0000000001
 43
0.0000000001
 40
0.0
 40
0.0
 40
0.0
 40
0.524413613475097
 40
0.524413613475097
 40
0.524413613475097
 10
1732.177104274936
 20
851.2685085035387
 30
0.0
 10
1732.005349813774
 20
851.0701836285847
 30
0.0
 10
1731.833595352612
 20
850.8718587536307
 30
0.0
  0
SPLINE
  5
111
330
1F
100
AcDbEntity
  8
Miura_Table_9590-01_2D
100
AcDbSpline
210
0.0
220
0.0
230
1.0
 70
     8
 71
     3
 72
    12
 73
     8
 74
     0
 42
0.0000000001
 43
0.0000000001
 40
0.0
 40
0.0
 40
0.0
 40
0.0
 40
0.2152508561583033
 40
0.4345163837059823
 40
1.014949707012151
 40
1.738429140534348
 40
2.240363334908873
 40
2.240363334908873
 40
2.240363334908873
 40
2.240363334908873
 10
1731.833595352612
 20
850.8718587536307
 30
0.0
 10
1731.786556212559
 20
850.8173100192257
 30
0.0
 10
1731.690717886783
 20
850.7086540063485
 30
0.0
 10
1731.454361599262
 20
850.4664700217204
 30
0.0
 10
1731.082356071368
 20
850.1207197758035
 30
0.0
 10
1730.628554463231
 20
849.7252145151542
 30
0.0
 10
1730.310342492597
 20
849.4688129807932
 30
0.0
 10
1730.173702042716
 20
849.3720515774871
 30
0.0
  0
SPLINE
  5
112
330
1F
100
AcDbEntity
  8
Miura_Table_9590-01_2D
100
AcDbSpline
210
0.0
220
0.0
230
1.0
 70
     8
 71
     3
 72
    12
 73
     8
 74
     0
 42
0.0000000001
 43
0.0000000001
 40
0.0
 40
0.0
 40
0.0
 40
0.0
 40
2.849423647238892
 40
5.573258475154479
 40
11.17057419198277
 40
16.6544972940824
 40
22.23406149512204
 40
22.23406149512204
 40
22.23406149512204
 40
22.23406149512204
 10
1730.173702042716
 20
849.3720515774871
 30
0.0
 10
1729.401471274937
 20
848.8189638215356
 30
0.0
 10
1727.849009306925
 20
847.7960979521927
 30
0.0
 10
1724.592575361912
 20
845.9853073524605
 30
0.0
 10
1720.330249626098
 20
844.2149799923218
 30
0.0
 10
1714.92160055677
 20
842.8861486752558
 30
0.0
 10
1711.23735959176
 20
842.5589348135834
 30
0.0
 10
1709.377640009844
 20
842.5372127429209
 30
0.0
  0
SPLINE
  5
113
330
1F
100
AcDbEntity
  8
Miura_Table_9590-01_2D
100
AcDbSpline
210
0.0
220
0.0
230
1.0
 70
     8
 71
     5
 72
    12
 73
     6
 74
     0
 42
0.0000000001
 43
0.0000000001
 40
-1.0
 40
-1.0
 40
-1.0
 40
-1.0
 40
-1.0
 40
-1.0
 40
0.0
 40
0.0
 40
0.0
 40
0.0
 40
0.0
 40
0.0
 10
1709.377640009844
 20
842.5372127429209
 30
0.0
 10
1709.294869785743
 20
842.536245962405
 30
0.0
 10
1709.212096798714
 20
842.5355157280376
 30
0.0
 10
1709.129319267972
 20
842.5350753605737
 30
0.0
 10
1709.046543412019
 20
842.5348307193876
 30
0.0
 10
1708.963767542111
 20
842.534825902607
 30
0.0
  0
SPLINE
  5
114
330
1F
100
AcDbEntity
  8
Miura_Table_9590-01_2D
100
AcDbSpline
210
0.0
220
0.0
230
1.0
 70
     8
 71
     3
 72
    12
 73
     8
 74
     0
 42
0.0000000001
 43
0.0000000001
 40
0.0
 40
0.0
 40
0.0
 40
0.0
 40
2.782398956976484
 40
5.60255636646087
 40
11.31396921066574
 40
16.96595331393149
 40
22.64829073387322
 40
22.64829073387322
 40
22.64829073387322
 40
22.64829073387322
 10
1708.963767542111
 20
842.534825902607
 30
0.0
 10
1708.036295375656
 20
842.5347719324106
 30
0.0
 10
1706.16881346651
 20
842.6074137185608
 30
0.0
 10
1702.419921998484
 20
843.0431309986316
 30
0.0
 10
1697.805747296894
 20
844.1393801643503
 30
0.0
 10
1692.534526600439
 20
846.3058008819596
 30
0.0
 10
1689.293740975096
 20
848.2697101034612
 30
0.0
 10
1687.753472615407
 20
849.3721096814654
 30
0.0
  0
SPLINE
  5
115
330
1F
100
AcDbEntity
  8
Miura_Table_9590-01_2D
100
AcDbSpline
210
0.0
220
0.0
230
1.0
 70
     8
 71
     3
 72
    16
 73
    12
 74
     0
 42
0.0000000001
 43
0.0000000001
 40
0.0
 40
0.0
 40
0.0
 40
0.0
 40
0.1449268675943032
 40
0.2673386247060249
 40
0.5163843678365243
 40
0.7646474073394522
 40
0.9969847930951103
 40
1.194773719318494
 40
1.376962800151374
 40
1.556234553971886
 40
1.789638013214852
 40
1.789638013214852
 40
1.789638013214852
 40
1.789638013214852
 10
1687.753472615407
 20
849.3721096814654
 30
0.0
 10
1687.714097854883
 20
849.4002013917348
 30
0.0
 10
1687.641987130879
 20
849.4526399332776
 30
0.0
 10
1687.511415584387
 20
849.5650613254431
 30
0.0
 10
1687.37302564575
 20
849.7194146860315
 30
0.0
 10
1687.243165398203
 20
849.926174721051
 30
0.0
 10
1687.161025964566
 20
850.1382231087805
 30
0.0
 10
1687.134041348193
 20
850.3423079239506
 30
0.0
 10
1687.163410156168
 20
850.5286284205818
 30
0.0
 10
1687.251944705679
 20
850.7081916672898
 30
0.0
 10
1687.341710470769
 20
850.8133241328965
 30
0.0
 10
1687.392737992167
 20
850.8720309801636
 30
0.0
  0
SPLINE
  5
116
330
1F
100
AcDbEntity
  8
Miura_Table_9590-01_2D
100
AcDbSpline
210
0.0
220
0.0
230
1.0
 70
    24
 71
     2
 72
     6
 73
     3
 74
     0
 42
0.0000000001
 43
0.0000000001
 40
0.0
 40
0.0
 40
0.0
 40
0.5244495011186676
 40
0.5244495011186676
 40
0.5244495011186676
 10
1687.392737992167
 20
850.8720309801636
 30
0.0
 10
1687.564486357831
 20
851.0703496604825
 30
0.0
 10
1687.736234723496
 20
851.2686683408015
 30
0.0
  0
SPLINE
  5
117
330
1F
100
AcDbEntity
  8
Miura_Table_9590-01_2D
100
AcDbSpline
210
0.0
220
0.0
230
1.0
 70
     8
 71
     3
 72
    12
 73
     8
 74
     0
 42
0.0000000001
 43
0.0000000001
 40
0.0
 40
0.0
 40
0.0
 40
0.0
 40
0.089002379783791
 40
0.1797960093880787
 40
0.4111935266141908
 40
0.6556287843907624
 40
0.8529822444616082
 40
0.8529822444616082
 40
0.8529822444616082
 40
0.8529822444616082
 10
1687.736234723496
 20
851.2686683408015
 30
0.0
 10
1687.755546685331
 20
851.2913961456554
 30
0.0
 10
1687.796340362585
 20
851.3355242056437
 30
0.0
 10
1687.905017003784
 20
851.419776723146
 30
0.0
 10
1688.071538185819
 20
851.5100339017563
 30
0.0
 10
1688.281045167342
 20
851.5918342507603
 30
0.0
 10
1688.426564529248
 20
851.619683099244
 30
0.0
 10
1688.49245477822
 20
851.6214668305145
 30
0.0
  0
SPLINE
  5
118
330
1F
100
AcDbEntity
  8
Miura_Table_9590-01_2D
100
AcDbSpline
210
0.0
220
0.0
230
1.0
 70
    12
 71
     3
 72
    15
 73
    11
 74
     0
 42
0.0000000001
 43
0.0000000001
 40
-2.500401592028198
 40
-2.500401592028198
 40
-2.500401592028198
 40
-2.500401592028198
 40
-2.092447594524908
 40
-1.587472916212024
 40
-0.9787609925742227
 40
-0.6090244151814629
 40
0.0
 40
0.0
 40
0.0
 40
0.3719149623461165
 40
0.3719149623461165
 40
0.3719149623461165
 40
0.3719149623461165
 10
1980.802110436209
 20
1222.671021044582
 30
0.0
 41
1.0
 10
1980.78280804322
 20
1222.536405813291
 30
0.0
 41
1.0
 10
1980.749056462792
 20
1222.233892107415
 30
0.0
 41
1.0
 10
1980.713005718246
 20
1221.727897022355
 30
0.0
 41
1.0
 10
1980.689914455059
 20
1221.233945969597
 30
0.0
 41
1.0
 10
1980.66984230322
 20
1220.705169701916
 30
0.0
 41
1.0
 10
1980.658698030014
 20
1220.374561825221
 30
0.0
 41
1.0
 10
1980.651661586815
 20
1220.171676240092
 30
0.0
 41
1.0
 10
1980.647364604485
 20
1220.04777901676
 30
0.0
 41
0.9999990251576337
 10
1980.643303369089
 20
1219.917935455557
 30
0.0
 41
0.9999990251576337
 10
1980.637902218013
 20
1219.794081454518
 30
0.0
 41
1.0
  0
SPLINE
  5
119
330
1F
100
AcDbEntity
  8
Miura_Table_9590-01_2D
100
AcDbSpline
210
0.0
220
0.0
230
1.0
 70
    12
 71
     2
 72
     6
 73
     3
 74
     0
 42
0.0000000001
 43
0.0000000001
 40
-0.8893486808566594
 40
-0.8893486808566594
 40
-0.8893486808566594
 40
0.0
 40
0.0
 40
0.0
 10
1980.637902218013
 20
1219.794081454518
 30
0.0
 41
1.0
 10
1980.613630913602
 20
1219.237515248563
 30
0.0
 41
0.9999953443438412
 10
1980.593694624784
 20
1218.793286657767
 30
0.0
 41
1.0
  0
SPLINE
  5
11A
330
1F
100
AcDbEntity
  8
Miura_Table_9590-01_2D
100
AcDbSpline
210
0.0
220
0.0
230
1.0
 70
     8
 71
     3
 72
    16
 73
    12
 74
     0
 42
0.0000000001
 43
0.0000000001
 40
-44.0809111380504
 40
-44.0809111380504
 40
-44.0809111380504
 40
-44.0809111380504
 40
-41.32262018863005
 40
-38.57568005800471
 40
-32.83955618066763
 40
-27.18774927002762
 40
-21.55559266881473
 40
-10.57964571019579
 40
-5.268782545111494
 40
-2.760660175474777
 40
0.0
 40
0.0
 40
0.0
 40
0.0
 10
1980.593694624784
 20
1218.793286657767
 30
0.0
 10
1980.552474365493
 20
1217.874799878952
 30
0.0
 10
1980.443188678043
 20
1216.042698334444
 30
0.0
 10
1980.09109327575
 20
1212.311646874082
 30
0.0
 10
1979.433735124383
 20
1207.643976553863
 30
0.0
 10
1978.300797988086
 20
1202.081974524783
 30
0.0
 10
1976.370699071412
 20
1194.914061947834
 30
0.0
 10
1973.814421146041
 20
1188.053308995383
 30
0.0
 10
1971.047410827513
 20
1182.427928467667
 30
0.0
 10
1969.327146172016
 20
1179.348986622768
 30
0.0
 10
1968.394090394223
 20
1177.827045387379
 30
0.0
 10
1967.910304210438
 20
1177.044426484068
 30
0.0
  0
SPLINE
  5
11B
330
1F
100
AcDbEntity
  8
Miura_Table_9590-01_2D
100
AcDbSpline
210
0.0
220
0.0
230
1.0
 70
     8
 71
     3
 72
    18
 73
    14
 74
     0
 42
0.0000000001
 43
0.0000000001
 40
-23.989786789493
 40
-23.989786789493
 40
-23.989786789493
 40
-23.989786789493
 40
-22.58263901442267
 40
-21.34373030388689
 40
-18.62944873608983
 40
-13.20000755298573
 40
-11.39409917538949
 40
-8.514888277655798
 40
-6.682465050476555
 40
-5.425659454196719
 40
-3.282334438373458
 40
-1.290606615411304
 40
0.0
 40
0.0
 40
0.0
 40
0.0
 10
1967.910304210438
 20
1177.044426484068
 30
0.0
 10
1967.663675406432
 20
1176.645456090564
 30
0.0
 10
1967.198442469974
 20
1175.896083769095
 30
0.0
 10
1966.232063795643
 20
1174.393126567297
 30
0.0
 10
1964.48667172744
 20
1171.797575557571
 30
0.0
 10
1962.526130922045
 20
1169.121079855769
 30
0.0
 10
1960.438748142903
 20
1166.473281112003
 30
0.0
 10
1959.052666925173
 20
1164.800094408196
 30
0.0
 10
1957.75808059265
 20
1163.289463686159
 30
0.0
 10
1956.612990024898
 20
1161.973771287107
 30
0.0
 10
1955.432216811571
 20
1160.618805043652
 30
0.0
 10
1954.249587575356
 20
1159.250471592375
 30
0.0
 10
1953.519456163967
 20
1158.405879071778
 30
0.0
 10
1953.237820161795
 20
1158.08067382824
 30
0.0
  0
SPLINE
  5
11C
330
1F
100
AcDbEntity
  8
Miura_Table_9590-01_2D
100
AcDbSpline
210
0.0
220
0.0
230
1.0
 70
    24
 71
     2
 72
     6
 73
     3
 74
     0
 42
0.0000000001
 43
0.0000000001
 40
-405.407916564433
 40
-405.407916564433
 40
-405.407916564433
 40
0.0
 40
0.0
 40
0.0
 10
1953.237820161796
 20
1158.08067382824
 30
0.0
 10
1820.536929852734
 20
1004.850884249122
 30
0.0
 10
1687.836039543672
 20
851.6210946700044
 30
0.0
  0
POLYLINE
  5
11D
330
1F
100
AcDbEntity
  8
Miura_Table_9590-01_2D
100
AcDb2dPolyline
 66
     1
 10
0.0
 20
0.0
 30
0.0
  0
VERTEX
  5
11E
330
11D
100
AcDbEntity
  8
Miura_Table_9590-01_2D
100
AcDbVertex
100
AcDb2dVertex
 10
1687.836039543672
 20
851.6210946700044
 30
0.0
  0
VERTEX
  5
11F
330
11D
100
AcDbEntity
  8
Miura_Table_9590-01_2D
100
AcDbVertex
100
AcDb2dVertex
 10
1732.504473655735
 20
851.6214184026937
 30
0.0
  0
SEQEND
  5
120
330
11D
100
AcDbEntity
  8
Miura_Table_9590-01_2D
  0
SPLINE
  5
121
330
1F
100
AcDbEntity
  8
Miura_Table_9590-01_2D
100
AcDbSpline
210
0.0
220
0.0
230
1.0
 70
    24
 71
     2
 72
     6
 73
     3
 74
     0
 42
0.0000000001
 43
0.0000000001
 40
-379.0828237665147
 40
-379.0828237665147
 40
-379.0828237665147
 40
0.0
 40
0.0
 40
0.0
 10
1732.504473655735
 20
851.6214184026937
 30
0.0
 10
1856.588454651935
 20
994.9012581528604
 30
0.0
 10
1980.672435648135
 20
1138.181097903027
 30
0.0
  0
SPLINE
  5
122
330
1F
100
AcDbEntity
  8
Miura_Table_9590-01_2D
100
AcDbSpline
210
0.0
220
0.0
230
1.0
 70
     8
 71
     3
 72
    13
 73
     9
 74
     0
 42
0.0000000001
 43
0.0000000001
 40
0.0
 40
0.0
 40
0.0
 40
0.0
 40
0.0902184704601651
 40
0.1761896442498796
 40
0.3455632779639898
 40
0.4948657560424342
 40
0.556563220459395
 40
0.6273565859503734
 40
0.6273565859503734
 40
0.6273565859503734
 40
0.6273565859503734
 10
2030.36129034786
 20
851.6213556057348
 30
0.0
 10
2030.391368032838
 20
851.6202990805159
 30
0.0
 10
2030.449934880203
 20
851.6151354012693
 30
0.0
 10
2030.562043302617
 20
851.5862176539563
 30
0.0
 10
2030.68219579214
 20
851.5219866400387
 30
0.0
 10
2030.769858654766
 20
851.4265040283271
 30
0.0
 10
2030.801709929629
 20
851.336574171971
 30
0.0
 10
2030.802466654349
 20
851.2920838950424
 30
0.0
 10
2030.802455575717
 20
851.2685220527032
 30
0.0
  0
SPLINE
  5
123
330
1F
100
AcDbEntity
  8
Miura_Table_9590-01_2D
100
AcDbSpline
210
0.0
220
0.0
230
1.0
 70
    24
 71
     2
 72
     6
 73
     3
 74
     0
 42
0.0000000001
 43
0.0000000001
 40
0.0
 40
0.0
 40
0.0
 40
0.3964465280210447
 40
0.3964465280210447
 40
0.3964465280210447
 10
2030.802455575717
 20
851.2685220527032
 30
0.0
 10
2030.802442192617
 20
851.0702987887815
 30
0.0
 10
2030.802428809518
 20
850.8720755248598
 30
0.0
  0
SPLINE
  5
124
330
1F
100
AcDbEntity
  8
Miura_Table_9590-01_2D
100
AcDbSpline
210
0.0
220
0.0
230
1.0
 70
     8
 71
     3
 72
    17
 73
    13
 74
     0
 42
0.0000000001
 43
0.0000000001
 40
0.0
 40
0.0
 40
0.0
 40
0.0
 40
0.0962064271533508
 40
0.1738289297854392
 40
0.3373064891879649
 40
0.5367070411386231
 40
0.7755987407383972
 40
1.076140845210532
 40
1.396849041230197
 40
1.692620935227627
 40
1.823404523223936
 40
1.966221085738845
 40
1.966221085738845
 40
1.966221085738845
 40
1.966221085738845
 10
2030.802428809518
 20
850.8720755248598
 30
0.0
 10
2030.802512495445
 20
850.8399928997103
 30
0.0
 10
2030.802072982682
 20
850.7820572143421
 30
0.0
 10
2030.789371708511
 20
850.6700504436651
 30
0.0
 10
2030.74635588401
 20
850.528793739626
 30
0.0
 10
2030.652477198552
 20
850.350808406394
 30
0.0
 10
2030.510218440683
 20
850.1493855313877
 30
0.0
 10
2030.322381048989
 20
849.9323548057837
 30
0.0
 10
2030.104359387939
 20
849.7178272612541
 30
0.0
 10
2029.913684356123
 20
849.5571863491746
 30
0.0
 10
2029.759660495828
 20
849.4461410815613
 30
0.0
 10
2029.682644429878
 20
849.3972410483589
 30
0.0
 10
2029.642220495033
 20
849.3720626552044
 30
0.0
  0
SPLINE
  5
125
330
1F
100
AcDbEntity
  8
Miura_Table_9590-01_2D
100
AcDbSpline
210
0.0
220
0.0
230
1.0
 70
    24
 71
     2
 72
     6
 73
     3
 74
     0
 42
0.0000000001
 43
0.0000000001
 40
0.0
 40
0.0
 40
0.0
 40
0.0002028258160686
 40
0.0002028258160686
 40
0.0002028258160686
 10
2029.642220495033
 20
849.3720626552044
 30
0.0
 10
2029.641891442814
 20
849.3718562203579
 30
0.0
 10
2029.641562390595
 20
849.3716497855114
 30
0.0
  0
SPLINE
  5
126
330
1F
100
AcDbEntity
  8
Miura_Table_9590-01_2D
100
AcDbSpline
210
0.0
220
0.0
230
1.0
 70
     8
 71
     3
 72
    25
 73
    21
 74
     0
 42
0.0000000001
 43
0.0000000001
 40
0.0
 40
0.0
 40
0.0
 40
0.0
 40
3.199587773031225
 40
6.339228569859388
 40
12.50824278581488
 40
18.76926702610335
 40
21.92722116738235
 40
23.54279560344114
 40
24.35060102343449
 40
24.73612324148421
 40
24.93803802146848
 40
25.02982611215962
 40
25.08490533980845
 40
25.10555096506041
 40
25.11462558692914
 40
25.12056925615265
 40
25.12388541331136
 40
25.12423612731493
 40
25.12438763465248
 40
25.12589178241075
 40
25.12589178241075
 40
25.12589178241075
 40
25.12589178241075
 10
2029.641562390595
 20
849.3716497855114
 30
0.0
 10
2028.736598156345
 20
848.8062360960103
 30
0.0
 10
2026.904642997483
 20
847.7505459230476
 30
0.0
 10
2023.153044175078
 20
845.925596047123
 30
0.0
 10
2018.264791123291
 20
844.1461073838047
 30
0.0
 10
2013.171515820155
 20
843.0562585532857
 30
0.0
 10
2009.511766913671
 20
842.6667684300821
 30
0.0
 10
2007.653717394367
 20
842.5673999562634
 30
0.0
 10
2006.717700417538
 20
842.5428432600115
 30
0.0
 10
2006.252665535345
 20
842.5367490417686
 30
0.0
 10
2006.026260977017
 20
842.5353088605198
 30
0.0
 10
2005.910003403155
 20
842.5349317512373
 30
0.0
 10
2005.854165779787
 20
842.5348514743571
 30
0.0
 10
2005.825899853512
 20
842.5348307218178
 30
0.0
 10
2005.814011913853
 20
842.5348273117493
 30
0.0
 10
2005.807941874793
 20
842.5348260549333
 30
0.0
 10
2005.804564069073
 20
842.5348259955922
 30
0.0
 10
2005.803937043925
 20
842.5348258355468
 30
0.0
 10
2005.803926507179
 20
842.5348259201437
 30
0.0
 10
2005.803163409268
 20
842.5348259007687
 30
0.0
 10
2005.802675072791
 20
842.5348259032373
 30
0.0
  0
SPLINE
  5
127
330
1F
100
AcDbEntity
  8
Miura_Table_9590-01_2D
100
AcDbSpline
210
0.0
220
0.0
230
1.0
 70
     8
 71
     3
 72
    24
 73
    20
 74
     0
 42
0.0000000001
 43
0.0000000001
 40
0.0
 40
0.0
 40
0.0
 40
0.0
 40
0.0020036010011362
 40
0.0022547111983818
 40
0.0025058213949665
 40
0.0056257993940696
 40
0.01124053246391
 40
0.0196887687649597
 40
0.0391810618565542
 40
0.0782064054598164
 40
0.188361477556041
 40
0.3719392572807771
 40
0.7758219389144186
 40
1.546888493465523
 40
3.125770128968859
 40
6.302017912663969
 40
12.52633999462964
 40
18.76876323914056
 40
25.12624730574042
 40
25.12624730574042
 40
25.12624730574042
 40
25.12624730574042
 10
2005.802675072791
 20
842.5348259032373
 30
0.0
 10
2005.802005107854
 20
842.5348259008258
 30
0.0
 10
2005.801055030574
 20
842.5348259286675
 30
0.0
 10
2005.80088246997
 20
842.5348258380448
 30
0.0
 10
2005.800685067472
 20
842.5348259620864
 30
0.0
 10
2005.79683173702
 20
842.5348261276565
 30
0.0
 10
2005.791701197186
 20
842.5348269647579
 30
0.0
 10
2005.780054539933
 20
842.5348306908281
 30
0.0
 10
2005.758282558943
 20
842.5348446318633
 30
0.0
 10
2005.701557823276
 20
842.5349171051853
 30
0.0
 10
2005.59094024109
 20
842.5352448168601
 30
0.0
 10
2005.358251012424
 20
842.5366961566556
 30
0.0
 10
2004.905528850457
 20
842.5424963126281
 30
0.0
 10
2003.987823346477
 20
842.5662881456399
 30
0.0
 10
2002.148033338337
 20
842.6622993238825
 30
0.0
 10
1998.505995180326
 20
843.0448227925424
 30
0.0
 10
1993.393067368607
 20
844.1299251886705
 30
0.0
 10
1987.480119003342
 20
846.2744720196947
 30
0.0
 10
1983.76118326605
 20
848.2486261671261
 30
0.0
 10
1981.963259433682
 20
849.371683784643
 30
0.0
  0
SPLINE
  5
128
330
1F
100
AcDbEntity
  8
Miura_Table_9590-01_2D
100
AcDbSpline
210
0.0
220
0.0
230
1.0
 70
     8
 71
     3
 72
    17
 73
    13
 74
     0
 42
0.0000000001
 43
0.0000000001
 40
0.0
 40
0.0
 40
0.0
 40
0.0
 40
0.1433371388019667
 40
0.27412170485795
 40
0.5698915548390706
 40
0.891163767339524
 40
1.191151497005545
 40
1.428512647803955
 40
1.62846324815081
 40
1.792814010234205
 40
1.870845827558682
 40
1.966221106772676
 40
1.966221106772676
 40
1.966221106772676
 40
1.966221106772676
 10
1981.963259433682
 20
849.371683784643
 30
0.0
 10
1981.922080877019
 20
849.3973309860128
 30
0.0
 10
1981.844923796718
 20
849.4463343204677
 30
0.0
 10
1981.690780099064
 20
849.5575085103969
 30
0.0
 10
1981.499987776373
 20
849.7183021101603
 30
0.0
 10
1981.282002862785
 20
849.9328703914211
 30
0.0
 10
1981.094545726788
 20
850.1495623268602
 30
0.0
 10
1980.952586105248
 20
850.3505602675414
 30
0.0
 10
1980.858621353534
 20
850.5284639549411
 30
0.0
 10
1980.815385629882
 20
850.670296362209
 30
0.0
 10
1980.80280250727
 20
850.7824814769256
 30
0.0
 10
1980.802343815451
 20
850.8402586559259
 30
0.0
 10
1980.802444806258
 20
850.8720755248598
 30
0.0
  0
SPLINE
  5
129
330
1F
100
AcDbEntity
  8
Miura_Table_9590-01_2D
100
AcDbSpline
210
0.0
220
0.0
230
1.0
 70
    24
 71
     2
 72
     6
 73
     3
 74
     0
 42
0.0000000001
 43
0.0000000001
 40
0.0
 40
0.0
 40
0.0
 40
0.3964465280210447
 40
0.3964465280210447
 40
0.3964465280210447
 10
1980.802444806258
 20
850.8720755248598
 30
0.0
 10
1980.802431423159
 20
851.0702987887815
 30
0.0
 10
1980.802418040059
 20
851.2685220527032
 30
0.0
  0
SPLINE
  5
12A
330
1F
100
AcDbEntity
  8
Miura_Table_9590-01_2D
100
AcDbSpline
210
0.0
220
0.0
230
1.0
 70
     8
 71
     3
 72
    12
 73
     8
 74
     0
 42
0.0000000001
 43
0.0000000001
 40
0.0
 40
0.0
 40
0.0
 40
0.0
 40
0.0709674213457879
 40
0.1335862693815868
 40
0.2813937667583465
 40
0.4525062216949927
 40
0.6273569207154127
 40
0.6273569207154127
 40
0.6273569207154127
 40
0.6273569207154127
 10
1980.802418040059
 20
851.2685220527032
 30
0.0
 10
1980.802308708206
 20
851.2921407946815
 30
0.0
 10
1980.803291964992
 20
851.3369967670978
 30
0.0
 10
1980.835201160719
 20
851.4267763707696
 30
0.0
 10
1980.923155733537
 20
851.5222291334248
 30
0.0
 10
1981.070018979444
 20
851.6009362459095
 30
0.0
 10
1981.185410482032
 20
851.6198700906466
 30
0.0
 10
1981.243583577615
 20
851.6213491236431
 30
0.0
  0
SPLINE
  5
12B
330
1F
100
AcDbEntity
  8
Miura_Table_9590-01_2D
100
AcDbSpline
210
0.0
220
0.0
230
1.0
 70
    12
 71
     3
 72
    12
 73
     8
 74
     0
 42
0.0000000001
 43
0.0000000001
 40
-0.5262507170806857
 40
-0.5262507170806857
 40
-0.5262507170806857
 40
-0.5262507170806857
 40
-0.5145170103963779
 40
-0.5145170103963779
 40
-0.2542829628112115
 40
-0.2542829628112115
 40
-0.0317448945959232
 40
-0.0317448945959232
 40
-0.0317448945959232
 40
-0.0317448945959232
 10
2026.929195963129
 20
1219.072326953496
 30
0.0
 41
1.0
 10
2026.931672641098
 20
1219.076763691461
 30
0.0
 41
1.0
 10
2026.934163978519
 20
1219.081132628002
 30
0.0
 41
1.0
 10
2026.992222835858
 20
1219.180780619096
 30
0.0
 41
1.0
 10
2027.051336904678
 20
1219.240909079292
 30
0.0
 41
1.0
 10
2027.154893145591
 20
1219.308727773817
 30
0.0
 41
1.0
 10
2027.200494365773
 20
1219.323203590444
 30
0.0
 41
1.0
 10
2027.244015299077
 20
1219.326332246892
 30
0.0
 41
1.0
  0
SPLINE
  5
12C
330
1F
100
AcDbEntity
  8
Miura_Table_9590-01_2D
100
AcDbSpline
210
0.0
220
0.0
230
1.0
 70
    12
 71
     3
 72
    18
 73
    14
 74
     0
 42
0.0000000001
 43
0.0000000001
 40
-17.08061118246446
 40
-17.08061118246446
 40
-17.08061118246446
 40
-17.08061118246446
 40
-15.57895392647034
 40
-15.57895392647034
 40
-15.57895392647034
 40
-11.24807156559795
 40
-11.24807156559795
 40
-11.24807156559795
 40
-8.873594413233326
 40
-6.279800604855796
 40
-3.187801552011507
 40
-1.394045745757029
 40
0.0
 40
0.0
 40
0.0
 40
0.0
 10
2026.296237314859
 20
1219.326420623478
 30
0.0
 41
1.0
 10
2026.85008645348
 20
1219.307733186107
 30
0.0
 41
0.8207490813200228
 10
2027.242273624181
 20
1218.916047778194
 30
0.0
 41
0.8207490813200228
 10
2027.261899095029
 20
1218.361994307343
 30
0.0
 41
1.0
 10
2027.313314515953
 20
1216.918956019313
 30
0.0
 41
0.9999156577956789
 10
2027.387689248769
 20
1215.476835880248
 30
0.0
 41
0.9999156577956789
 10
2027.48500447469
 20
1214.035998784922
 30
0.0
 41
1.0
 10
2027.538246417462
 20
1213.245650650298
 30
0.0
 41
1.0
 10
2027.662321222587
 20
1211.59416688131
 30
0.0
 41
1.0
 10
2027.902432516267
 20
1208.918102897038
 30
0.0
 41
1.0
 10
2028.153472463443
 20
1206.437562897532
 30
0.0
 41
1.0
 10
2028.377453975614
 20
1204.356310042997
 30
0.0
 41
1.0
 10
2028.495675976721
 20
1203.298169168665
 30
0.0
 41
1.0
 10
2028.549443777637
 20
1202.836606265429
 30
0.0
 41
1.0
  0
SPLINE
  5
12D
330
1F
100
AcDbEntity
  8
Miura_Table_9590-01_2D
100
AcDbSpline
210
0.0
220
0.0
230
1.0
 70
     8
 71
     3
 72
    16
 73
    12
 74
     0
 42
0.0000000001
 43
0.0000000001
 40
-33.3642801434906
 40
-33.3642801434906
 40
-33.3642801434906
 40
-33.3642801434906
 40
-24.17426881783292
 40
-19.70973193739507
 40
-17.41415730793448
 40
-12.69286067967022
 40
-10.39643749466709
 40
-6.695123544693319
 40
-3.023047667395003
 40
-1.441026840298903
 40
0.0
 40
0.0
 40
0.0
 40
0.0
 10
2028.549443777636
 20
1202.836606265429
 30
0.0
 10
2028.9039029855
 20
1199.793795916599
 30
0.0
 10
2029.513026109739
 20
1195.282751020473
 30
0.0
 10
2030.317144852678
 20
1190.027198565597
 30
0.0
 10
2030.914654397882
 20
1186.246969492009
 30
0.0
 10
2031.408441565033
 20
1183.182078418517
 30
0.0
 10
2031.963869146973
 20
1179.652471342642
 30
0.0
 10
2032.441772625529
 20
1176.464799690598
 30
0.0
 10
2032.826307019099
 20
1173.504226897355
 30
0.0
 10
2033.053318468208
 20
1171.283936467481
 30
0.0
 10
2033.133958502724
 20
1170.279439944178
 30
0.0
 10
2033.166296214646
 20
1169.799963362607
 30
0.0
  0
SPLINE
  5
12E
330
1F
100
AcDbEntity
  8
Miura_Table_9590-01_2D
100
AcDbSpline
210
0.0
220
0.0
230
1.0
 70
     8
 71
     3
 72
    12
 73
     8
 74
     0
 42
0.0000000001
 43
0.0000000001
 40
-2.866008512548971
 40
-2.866008512548971
 40
-2.866008512548971
 40
-2.866008512548971
 40
-2.1803500891602
 40
-1.316467333291305
 40
-0.6436630852735566
 40
-0.3236325452860642
 40
0.0
 40
0.0
 40
0.0
 40
0.0
 10
2033.166296214646
 20
1169.799963362607
 30
0.0
 10
2033.181834859121
 20
1169.57171604835
 30
0.0
 10
2033.209434236435
 20
1169.055933466143
 30
0.0
 10
2033.241180145443
 20
1168.315814369126
 30
0.0
 10
2033.258590132943
 20
1167.697135444078
 30
0.0
 10
2033.264432020287
 20
1167.258340948249
 30
0.0
 10
2033.265656896315
 20
1167.043793538604
 30
0.0
 10
2033.265659089217
 20
1166.935903185071
 30
0.0
  0
SPLINE
  5
12F
330
1F
100
AcDbEntity
  8
Miura_Table_9590-01_2D
100
AcDbSpline
210
0.0
220
0.0
230
1.0
 70
     8
 71
     3
 72
    13
 73
     9
 74
     0
 42
0.0000000001
 43
0.0000000001
 40
-8.067492795701002
 40
-8.067492795701002
 40
-8.067492795701002
 40
-8.067492795701002
 40
-6.929436622567084
 40
-5.933962300934526
 40
-4.0143213514352
 40
-2.037649979843423
 40
-1.015652899145925
 40
0.0
 40
0.0
 40
0.0
 40
0.0
 10
2033.265659089217
 20
1166.935903185071
 30
0.0
 10
2033.266312383259
 20
1166.556560204006
 30
0.0
 10
2033.252624802077
 20
1165.845182592415
 30
0.0
 10
2033.133999153555
 20
1164.498401922646
 30
0.0
 10
2032.789223759583
 20
1162.89850900873
 30
0.0
 10
2032.166804881235
 20
1161.375001290309
 30
0.0
 10
2031.51170945617
 20
1160.20738206324
 30
0.0
 10
2031.131673105171
 20
1159.643452469391
 30
0.0
 10
2030.931536761742
 20
1159.37050916693
 30
0.0
  0
SPLINE
  5
130
330
1F
100
AcDbEntity
  8
Miura_Table_9590-01_2D
100
AcDbSpline
210
0.0
220
0.0
230
1.0
 70
     8
 71
     3
 72
    13
 73
     9
 74
     0
 42
0.0000000001
 43
0.0000000001
 40
0.0
 40
0.0
 40
0.0
 40
0.0
 40
0.0787536068012881
 40
0.1449423458634473
 40
0.266120321626831
 40
0.3853723078620238
 40
0.4472243187928732
 40
0.5284135023430945
 40
0.5284135023430945
 40
0.5284135023430945
 40
0.5284135023430945
 10
2279.580524418847
 20
851.6216947999819
 30
0.0
 10
2279.554335769507
 20
851.6211315408432
 30
0.0
 10
2279.505815934796
 20
851.6166385205472
 30
0.0
 10
2279.421185050516
 20
851.5890821029764
 30
0.0
 10
2279.343986167747
 20
851.5121267832967
 30
0.0
 10
2279.339109408422
 20
851.4046575600034
 30
0.0
 10
2279.378390504654
 20
851.3256211876826
 30
0.0
 10
2279.408935322753
 20
851.2888001746803
 30
0.0
 10
2279.426869303703
 20
851.2685085035387
 30
0.0
  0
SPLINE
  5
131
330
1F
100
AcDbEntity
  8
Miura_Table_9590-01_2D
100
AcDbSpline
210
0.0
220
0.0
230
1.0
 70
    24
 71
     2
 72
     6
 73
     3
 74
     0
 42
0.0000000001
 43
0.0000000001
 40
0.0
 40
0.0
 40
0.0
 40
0.524413613475097
 40
0.524413613475097
 40
0.524413613475097
 10
2279.426869303703
 20
851.2685085035387
 30
0.0
 10
2279.598623764865
 20
851.0701836285847
 30
0.0
 10
2279.770378226027
 20
850.8718587536307
 30
0.0
  0
SPLINE
  5
132
330
1F
100
AcDbEntity
  8
Miura_Table_9590-01_2D
100
AcDbSpline
210
0.0
220
0.0
230
1.0
 70
     8
 71
     3
 72
    12
 73
     8
 74
     0
 42
0.0000000001
 43
0.0000000001
 40
0.0
 40
0.0
 40
0.0
 40
0.0
 40
0.2152508561583033
 40
0.4345163837059823
 40
1.014949707012151
 40
1.738429140534348
 40
2.240363334908873
 40
2.240363334908873
 40
2.240363334908873
 40
2.240363334908873
 10
2279.770378226027
 20
850.8718587536307
 30
0.0
 10
2279.81741736608
 20
850.8173100192257
 30
0.0
 10
2279.913255691856
 20
850.7086540063485
 30
0.0
 10
2280.149611979377
 20
850.4664700217204
 30
0.0
 10
2280.521617507271
 20
850.1207197758035
 30
0.0
 10
2280.975419115407
 20
849.7252145151542
 30
0.0
 10
2281.293631086042
 20
849.4688129807932
 30
0.0
 10
2281.430271535923
 20
849.3720515774871
 30
0.0
  0
SPLINE
  5
133
330
1F
100
AcDbEntity
  8
Miura_Table_9590-01_2D
100
AcDbSpline
210
0.0
220
0.0
230
1.0
 70
     8
 71
     3
 72
    12
 73
     8
 74
     0
 42
0.0000000001
 43
0.0000000001
 40
0.0
 40
0.0
 40
0.0
 40
0.0
 40
2.849423647238892
 40
5.573258475154479
 40
11.17057419198277
 40
16.6544972940824
 40
22.23406149512204
 40
22.23406149512204
 40
22.23406149512204
 40
22.23406149512204
 10
2281.430271535923
 20
849.3720515774871
 30
0.0
 10
2282.202502303702
 20
848.8189638215356
 30
0.0
 10
2283.754964271714
 20
847.7960979521927
 30
0.0
 10
2287.011398216727
 20
845.9853073524605
 30
0.0
 10
2291.273723952541
 20
844.2149799923218
 30
0.0
 10
2296.682373021869
 20
842.8861486752558
 30
0.0
 10
2300.366613986879
 20
842.5589348135834
 30
0.0
 10
2302.226333568795
 20
842.5372127429209
 30
0.0
  0
SPLINE
  5
134
330
1F
100
AcDbEntity
  8
Miura_Table_9590-01_2D
100
AcDbSpline
210
0.0
220
0.0
230
1.0
 70
     8
 71
     5
 72
    12
 73
     6
 74
     0
 42
0.0000000001
 43
0.0000000001
 40
-1.0
 40
-1.0
 40
-1.0
 40
-1.0
 40
-1.0
 40
-1.0
 40
0.0
 40
0.0
 40
0.0
 40
0.0
 40
0.0
 40
0.0
 10
2302.226333568795
 20
842.5372127429209
 30
0.0
 10
2302.309103792896
 20
842.536245962405
 30
0.0
 10
2302.391876779925
 20
842.5355157280376
 30
0.0
 10
2302.474654310667
 20
842.5350753605737
 30
0.0
 10
2302.55743016662
 20
842.5348307193876
 30
0.0
 10
2302.640206036528
 20
842.534825902607
 30
0.0
  0
SPLINE
  5
135
330
1F
100
AcDbEntity
  8
Miura_Table_9590-01_2D
100
AcDbSpline
210
0.0
220
0.0
230
1.0
 70
     8
 71
     3
 72
    12
 73
     8
 74
     0
 42
0.0000000001
 43
0.0000000001
 40
0.0
 40
0.0
 40
0.0
 40
0.0
 40
2.782398956976484
 40
5.60255636646087
 40
11.31396921066574
 40
16.96595331393149
 40
22.64829073387322
 40
22.64829073387322
 40
22.64829073387322
 40
22.64829073387322
 10
2302.640206036528
 20
842.534825902607
 30
0.0
 10
2303.567678202983
 20
842.5347719324106
 30
0.0
 10
2305.435160112129
 20
842.6074137185608
 30
0.0
 10
2309.184051580155
 20
843.0431309986316
 30
0.0
 10
2313.798226281745
 20
844.1393801643503
 30
0.0
 10
2319.0694469782
 20
846.3058008819596
 30
0.0
 10
2322.310232603543
 20
848.2697101034612
 30
0.0
 10
2323.850500963232
 20
849.3721096814654
 30
0.0
  0
SPLINE
  5
136
330
1F
100
AcDbEntity
  8
Miura_Table_9590-01_2D
100
AcDbSpline
210
0.0
220
0.0
230
1.0
 70
     8
 71
     3
 72
    16
 73
    12
 74
     0
 42
0.0000000001
 43
0.0000000001
 40
0.0
 40
0.0
 40
0.0
 40
0.0
 40
0.1449268675943032
 40
0.2673386247060249
 40
0.5163843678365243
 40
0.7646474073394522
 40
0.9969847930951103
 40
1.194773719318494
 40
1.376962800151374
 40
1.556234553971886
 40
1.789638013214852
 40
1.789638013214852
 40
1.789638013214852
 40
1.789638013214852
 10
2323.850500963232
 20
849.3721096814654
 30
0.0
 10
2323.889875723756
 20
849.4002013917348
 30
0.0
 10
2323.96198644776
 20
849.4526399332776
 30
0.0
 10
2324.092557994252
 20
849.5650613254431
 30
0.0
 10
2324.230947932889
 20
849.7194146860315
 30
0.0
 10
2324.360808180435
 20
849.926174721051
 30
0.0
 10
2324.442947614073
 20
850.1382231087805
 30
0.0
 10
2324.469932230446
 20
850.3423079239506
 30
0.0
 10
2324.440563422471
 20
850.5286284205818
 30
0.0
 10
2324.35202887296
 20
850.7081916672898
 30
0.0
 10
2324.26226310787
 20
850.8133241328965
 30
0.0
 10
2324.211235586472
 20
850.8720309801636
 30
0.0
  0
SPLINE
  5
137
330
1F
100
AcDbEntity
  8
Miura_Table_9590-01_2D
100
AcDbSpline
210
0.0
220
0.0
230
1.0
 70
    24
 71
     2
 72
     6
 73
     3
 74
     0
 42
0.0000000001
 43
0.0000000001
 40
0.0
 40
0.0
 40
0.0
 40
0.5244495011186676
 40
0.5244495011186676
 40
0.5244495011186676
 10
2324.211235586472
 20
850.8720309801636
 30
0.0
 10
2324.039487220808
 20
851.0703496604825
 30
0.0
 10
2323.867738855143
 20
851.2686683408015
 30
0.0
  0
SPLINE
  5
138
330
1F
100
AcDbEntity
  8
Miura_Table_9590-01_2D
100
AcDbSpline
210
0.0
220
0.0
230
1.0
 70
     8
 71
     3
 72
    12
 73
     8
 74
     0
 42
0.0000000001
 43
0.0000000001
 40
0.0
 40
0.0
 40
0.0
 40
0.0
 40
0.089002379783791
 40
0.1797960093880787
 40
0.4111935266141908
 40
0.6556287843907624
 40
0.8529822444616082
 40
0.8529822444616082
 40
0.8529822444616082
 40
0.8529822444616082
 10
2323.867738855143
 20
851.2686683408015
 30
0.0
 10
2323.848426893308
 20
851.2913961456554
 30
0.0
 10
2323.807633216054
 20
851.3355242056437
 30
0.0
 10
2323.698956574855
 20
851.419776723146
 30
0.0
 10
2323.53243539282
 20
851.5100339017563
 30
0.0
 10
2323.322928411297
 20
851.5918342507603
 30
0.0
 10
2323.177409049391
 20
851.619683099244
 30
0.0
 10
2323.111518800419
 20
851.6214668305145
 30
0.0
  0
SPLINE
  5
139
330
1F
100
AcDbEntity
  8
Miura_Table_9590-01_2D
100
AcDbSpline
210
0.0
220
0.0
230
1.0
 70
    12
 71
     3
 72
    15
 73
    11
 74
     0
 42
0.0000000001
 43
0.0000000001
 40
-2.500401592028198
 40
-2.500401592028198
 40
-2.500401592028198
 40
-2.500401592028198
 40
-2.092447594524908
 40
-1.587472916212024
 40
-0.9787609925742227
 40
-0.6090244151814629
 40
0.0
 40
0.0
 40
0.0
 40
0.3719149623461165
 40
0.3719149623461165
 40
0.3719149623461165
 40
0.3719149623461165
 10
2030.80186314243
 20
1222.671021044582
 30
0.0
 41
1.0
 10
2030.821165535418
 20
1222.536405813291
 30
0.0
 41
1.0
 10
2030.854917115847
 20
1222.233892107415
 30
0.0
 41
1.0
 10
2030.890967860393
 20
1221.727897022355
 30
0.0
 41
1.0
 10
2030.91405912358
 20
1221.233945969597
 30
0.0
 41
1.0
 10
2030.934131275419
 20
1220.705169701916
 30
0.0
 41
1.0
 10
2030.945275548625
 20
1220.374561825221
 30
0.0
 41
1.0
 10
2030.952311991824
 20
1220.171676240092
 30
0.0
 41
1.0
 10
2030.956608974154
 20
1220.04777901676
 30
0.0
 41
0.9999990251576337
 10
2030.96067020955
 20
1219.917935455557
 30
0.0
 41
0.9999990251576337
 10
2030.966071360626
 20
1219.794081454518
 30
0.0
 41
1.0
  0
SPLINE
  5
13A
330
1F
100
AcDbEntity
  8
Miura_Table_9590-01_2D
100
AcDbSpline
210
0.0
220
0.0
230
1.0
 70
    12
 71
     2
 72
     6
 73
     3
 74
     0
 42
0.0000000001
 43
0.0000000001
 40
-0.8893486808566594
 40
-0.8893486808566594
 40
-0.8893486808566594
 40
0.0
 40
0.0
 40
0.0
 10
2030.966071360626
 20
1219.794081454518
 30
0.0
 41
1.0
 10
2030.990342665038
 20
1219.237515248563
 30
0.0
 41
0.9999953443438412
 10
2031.010278953855
 20
1218.793286657767
 30
0.0
 41
1.0
  0
SPLINE
  5
13B
330
1F
100
AcDbEntity
  8
Miura_Table_9590-01_2D
100
AcDbSpline
210
0.0
220
0.0
230
1.0
 70
     8
 71
     3
 72
    16
 73
    12
 74
     0
 42
0.0000000001
 43
0.0000000001
 40
-44.0809111380504
 40
-44.0809111380504
 40
-44.0809111380504
 40
-44.0809111380504
 40
-41.32262018863005
 40
-38.57568005800471
 40
-32.83955618066763
 40
-27.18774927002762
 40
-21.55559266881473
 40
-10.57964571019579
 40
-5.268782545111494
 40
-2.760660175474777
 40
0.0
 40
0.0
 40
0.0
 40
0.0
 10
2031.010278953855
 20
1218.793286657767
 30
0.0
 10
2031.051499213146
 20
1217.874799878952
 30
0.0
 10
2031.160784900596
 20
1216.042698334444
 30
0.0
 10
2031.512880302889
 20
1212.311646874082
 30
0.0
 10
2032.170238454255
 20
1207.643976553863
 30
0.0
 10
2033.303175590553
 20
1202.081974524783
 30
0.0
 10
2035.233274507227
 20
1194.914061947834
 30
0.0
 10
2037.789552432598
 20
1188.053308995383
 30
0.0
 10
2040.556562751126
 20
1182.427928467667
 30
0.0
 10
2042.276827406622
 20
1179.348986622768
 30
0.0
 10
2043.209883184416
 20
1177.827045387379
 30
0.0
 10
2043.693669368201
 20
1177.044426484068
 30
0.0
  0
SPLINE
  5
13C
330
1F
100
AcDbEntity
  8
Miura_Table_9590-01_2D
100
AcDbSpline
210
0.0
220
0.0
230
1.0
 70
     8
 71
     3
 72
    18
 73
    14
 74
     0
 42
0.0000000001
 43
0.0000000001
 40
-23.989786789493
 40
-23.989786789493
 40
-23.989786789493
 40
-23.989786789493
 40
-22.58263901442267
 40
-21.34373030388689
 40
-18.62944873608983
 40
-13.20000755298573
 40
-11.39409917538949
 40
-8.514888277655798
 40
-6.682465050476555
 40
-5.425659454196719
 40
-3.282334438373458
 40
-1.290606615411304
 40
0.0
 40
0.0
 40
0.0
 40
0.0
 10
2043.693669368201
 20
1177.044426484068
 30
0.0
 10
2043.940298172207
 20
1176.645456090564
 30
0.0
 10
2044.405531108665
 20
1175.896083769095
 30
0.0
 10
2045.371909782996
 20
1174.393126567297
 30
0.0
 10
2047.117301851199
 20
1171.797575557571
 30
0.0
 10
2049.077842656594
 20
1169.121079855769
 30
0.0
 10
2051.165225435736
 20
1166.473281112003
 30
0.0
 10
2052.551306653466
 20
1164.800094408196
 30
0.0
 10
2053.845892985988
 20
1163.289463686159
 30
0.0
 10
2054.990983553741
 20
1161.973771287107
 30
0.0
 10
2056.171756767068
 20
1160.618805043652
 30
0.0
 10
2057.354386003283
 20
1159.250471592375
 30
0.0
 10
2058.084517414672
 20
1158.405879071778
 30
0.0
 10
2058.366153416844
 20
1158.08067382824
 30
0.0
  0
SPLINE
  5
13D
330
1F
100
AcDbEntity
  8
Miura_Table_9590-01_2D
100
AcDbSpline
210
0.0
220
0.0
230
1.0
 70
    24
 71
     2
 72
     6
 73
     3
 74
     0
 42
0.0000000001
 43
0.0000000001
 40
-405.407916564433
 40
-405.407916564433
 40
-405.407916564433
 40
0.0
 40
0.0
 40
0.0
 10
2058.366153416843
 20
1158.08067382824
 30
0.0
 10
2191.067043725905
 20
1004.850884249122
 30
0.0
 10
2323.767934034967
 20
851.6210946700044
 30
0.0
  0
POLYLINE
  5
13E
330
1F
100
AcDbEntity
  8
Miura_Table_9590-01_2D
100
AcDb2dPolyline
 66
     1
 10
0.0
 20
0.0
 30
0.0
  0
VERTEX
  5
13F
330
13E
100
AcDbEntity
  8
Miura_Table_9590-01_2D
100
AcDbVertex
100
AcDb2dVertex
 10
2323.767934034967
 20
851.6210946700044
 30
0.0
  0
VERTEX
  5
140
330
13E
100
AcDbEntity
  8
Miura_Table_9590-01_2D
100
AcDbVertex
100
AcDb2dVertex
 10
2279.099499922904
 20
851.6214184026937
 30
0.0
  0
SEQEND
  5
141
330
13E
100
AcDbEntity
  8
Miura_Table_9590-01_2D
  0
SPLINE
  5
142
330
1F
100
AcDbEntity
  8
Miura_Table_9590-01_2D
100
AcDbSpline
210
0.0
220
0.0
230
1.0
 70
    24
 71
     2
 72
     6
 73
     3
 74
     0
 42
0.0000000001
 43
0.0000000001
 40
-379.0828237665147
 40
-379.0828237665147
 40
-379.0828237665147
 40
0.0
 40
0.0
 40
0.0
 10
2279.099499922904
 20
851.6214184026937
 30
0.0
 10
2155.015518926704
 20
994.9012581528604
 30
0.0
 10
2030.931537930504
 20
1138.181097903027
 30
0.0
  0
SPLINE
  5
143
330
1F
100
AcDbEntity
  8
Miura_Table_9590-01_2D
100
AcDbSpline
210
0.0
220
0.0
230
1.0
 70
    12
 71
     2
 72
     6
 73
     3
 74
     0
 42
0.0000000001
 43
0.0000000001
 40
0.0
 40
0.0
 40
0.0
 40
3.028274426341321
 40
3.028274426341321
 40
3.028274426341321
 10
1980.72733661357
 20
1169.964577843522
 30
0.0
 41
1.0
 10
1980.674981610851
 20
1168.451209373704
 30
0.0
 41
0.999864696217075
 10
1980.672436809421
 20
1166.936937701998
 30
0.0
 41
1.0
  0
SPLINE
  5
144
330
1F
100
AcDbEntity
  8
Miura_Table_9590-01_2D
100
AcDbSpline
210
0.0
220
0.0
230
1.0
 70
     8
 71
     3
 72
     8
 73
     4
 74
     0
 42
0.0000000001
 43
0.0000000001
 40
-17.56166272600342
 40
-17.56166272600342
 40
-17.56166272600342
 40
-17.56166272600342
 40
0.0
 40
0.0
 40
0.0
 40
0.0
 10
1980.672436809421
 20
1166.936937701998
 30
0.0
 10
1980.672436820534
 20
1161.083050126663
 30
0.0
 10
1980.672435648135
 20
1155.13740881584
 30
0.0
 10
1980.672435648135
 20
1149.283521240505
 30
0.0
  0
SPLINE
  5
145
330
1F
100
AcDbEntity
  8
Miura_Table_9590-01_2D
100
AcDbSpline
210
0.0
220
0.0
230
1.0
 70
    24
 71
     2
 72
     6
 73
     3
 74
     0
 42
0.0000000001
 43
0.0000000001
 40
-297.6614457198009
 40
-297.6614457198009
 40
-297.6614457198009
 40
0.0
 40
0.0
 40
0.0
 10
1980.672435648135
 20
1149.283521240505
 30
0.0
 10
1980.672435648135
 20
1000.452798380605
 30
0.0
 10
1980.672435648135
 20
851.6220755207041
 30
0.0
  0
POLYLINE
  5
146
330
1F
100
AcDbEntity
  8
Miura_Table_9590-01_2D
100
AcDb2dPolyline
 66
     1
 10
0.0
 20
0.0
 30
0.0
  0
VERTEX
  5
147
330
146
100
AcDbEntity
  8
Miura_Table_9590-01_2D
100
AcDbVertex
100
AcDb2dVertex
 10
1980.672435648135
 20
851.6220755207041
 30
0.0
  0
VERTEX
  5
148
330
146
100
AcDbEntity
  8
Miura_Table_9590-01_2D
100
AcDbVertex
100
AcDb2dVertex
 10
2030.931537930504
 20
851.6220755207041
 30
0.0
  0
SEQEND
  5
149
330
146
100
AcDbEntity
  8
Miura_Table_9590-01_2D
  0
SPLINE
  5
14A
330
1F
100
AcDbEntity
  8
Miura_Table_9590-01_2D
100
AcDbSpline
210
0.0
220
0.0
230
1.0
 70
    24
 71
     2
 72
     6
 73
     3
 74
     0
 42
0.0000000001
 43
0.0000000001
 40
0.0
 40
0.0
 40
0.0
 40
297.6614457198009
 40
297.6614457198009
 40
297.6614457198009
 10
2030.931537930504
 20
851.6220755207041
 30
0.0
 10
2030.931537930504
 20
1000.452798380605
 30
0.0
 10
2030.931537930504
 20
1149.283521240505
 30
0.0
  0
SPLINE
  5
14B
330
1F
100
AcDbEntity
  8
Miura_Table_9590-01_2D
100
AcDbSpline
210
0.0
220
0.0
230
1.0
 70
     8
 71
     3
 72
     8
 73
     4
 74
     0
 42
0.0000000001
 43
0.0000000001
 40
0.0
 40
0.0
 40
0.0
 40
0.0
 40
17.56166272600342
 40
17.56166272600342
 40
17.56166272600342
 40
17.56166272600342
 10
2030.931537930504
 20
1149.283521240505
 30
0.0
 10
2030.931537930504
 20
1155.13740881584
 30
0.0
 10
2030.931536758105
 20
1161.083050126663
 30
0.0
 10
2030.931536769218
 20
1166.936937701998
 30
0.0
  0
SPLINE
  5
14C
330
1F
100
AcDbEntity
  8
Miura_Table_9590-01_2D
100
AcDbSpline
210
0.0
220
0.0
230
1.0
 70
    12
 71
     2
 72
     6
 73
     3
 74
     0
 42
0.0000000001
 43
0.0000000001
 40
-3.028274426341321
 40
-3.028274426341321
 40
-3.028274426341321
 40
0.0
 40
0.0
 40
0.0
 10
2030.931536769218
 20
1166.936937701998
 30
0.0
 41
1.0
 10
2030.928991967788
 20
1168.451209373704
 30
0.0
 41
0.999864696217075
 10
2030.876636965069
 20
1169.964577843522
 30
0.0
 41
1.0
  0
SPLINE
  5
14D
330
1F
100
AcDbEntity
  8
Miura_Table_9590-01_2D
 62
     9
100
AcDbSpline
210
0.0
220
0.0
230
1.0
 70
     8
 71
     3
 72
    12
 73
     8
 74
     0
 42
0.0000000001
 43
0.0000000001
 40
28.4242465224738
 40
28.4242465224738
 40
28.4242465224738
 40
28.4242465224738
 40
30.1563342873369
 40
32.34208490377009
 40
34.43000439321897
 40
35.44727884989575
 40
36.53847946972826
 40
36.53847946972826
 40
36.53847946972826
 40
36.53847946972826
 10
290.7514582881464
 20
-194.8424735608648
 30
0.0
 10
290.1762776490344
 20
-194.79218134206
 30
0.0
 10
288.8801588777011
 20
-194.6205921734951
 30
0.0
 10
286.9290666119896
 20
-194.1576719484749
 30
0.0
 10
285.2707322675105
 20
-193.5490039580934
 30
0.0
 10
284.0003326397336
 20
-192.9621052943803
 30
0.0
 10
283.3839350887192
 20
-192.6236590102625
 30
0.0
 10
283.0665179286143
 20
-192.4461548493713
 30
0.0
  0
SPLINE
  5
14E
330
1F
100
AcDbEntity
  8
Miura_Table_9590-01_2D
 62
     9
100
AcDbSpline
210
0.0
220
0.0
230
1.0
 70
     8
 71
     3
 72
    12
 73
     8
 74
     0
 42
0.0000000001
 43
0.0000000001
 40
0.0
 40
0.0
 40
0.0
 40
0.0
 40
1.09120061983259
 40
2.108475076510266
 40
4.196394565957977
 40
6.382145182392395
 40
8.114214885926136
 40
8.114214885926136
 40
8.114214885926136
 40
8.114214885926136
 10
308.1965179244971
 20
-148.9197180622961
 30
0.0
 10
308.5089404992941
 20
-149.1058711441284
 30
0.0
 10
309.1102677447816
 20
-149.4704254059214
 30
0.0
 10
310.2537078339783
 20
-150.2773367782505
 30
0.0
 10
311.6099442472723
 20
-151.4088108428403
 30
0.0
 10
312.986565454736
 20
-152.8674642385174
 30
0.0
 10
313.7831330273523
 20
-153.9040190987819
 30
0.0
 10
314.114245545028
 20
-154.3769436984612
 30
0.0
  0
SPLINE
  5
14F
330
1F
100
AcDbEntity
  8
Miura_Table_9590-01_2D
 62
     9
100
AcDbSpline
210
0.0
220
0.0
230
1.0
 70
     8
 71
     3
 72
    12
 73
     8
 74
     0
 42
0.0000000001
 43
0.0000000001
 40
28.42424652247151
 40
28.42424652247151
 40
28.42424652247151
 40
28.42424652247151
 40
30.15633428733683
 40
32.34208490377019
 40
34.43000439321883
 40
35.4472788498954
 40
36.53847946972824
 40
36.53847946972824
 40
36.53847946972824
 40
36.53847946972824
 10
-314.1142609839799
 20
-154.376912284474
 30
0.0
 10
-313.7831163253262
 20
-153.9039373486401
 30
0.0
 10
-312.9864563606687
 20
-152.8672601506263
 30
0.0
 10
-311.6100095530182
 20
-151.409024795902
 30
0.0
 10
-310.253720438639
 20
-150.2771991208055
 30
0.0
 10
-309.1102514725262
 20
-149.4704501020484
 30
0.0
 10
-308.5089496171577
 20
-149.1058573060992
 30
0.0
 10
-308.1965179244962
 20
-148.9197180622961
 30
0.0
  0
SPLINE
  5
150
330
1F
100
AcDbEntity
  8
Miura_Table_9590-01_2D
 62
     9
100
AcDbSpline
210
0.0
220
0.0
230
1.0
 70
     8
 71
     3
 72
    12
 73
     8
 74
     0
 42
0.0000000001
 43
0.0000000001
 40
0.0
 40
0.0
 40
0.0
 40
0.0
 40
1.091200619832687
 40
2.108475076510281
 40
4.196394565958211
 40
6.382145182392561
 40
8.11421488592736
 40
8.11421488592736
 40
8.11421488592736
 40
8.11421488592736
 10
-283.0665179286125
 20
-192.4461548493709
 30
0.0
 10
-283.3839425138713
 20
-192.6236441949457
 30
0.0
 10
-284.0003193883867
 20
-192.9621317346286
 30
0.0
 10
-285.2708451800208
 20
-193.5489242134122
 30
0.0
 10
-286.928848670329
 20
-194.1577223685699
 30
0.0
 10
-288.8803901700337
 20
-194.620584607783
 30
0.0
 10
-290.1763567977472
 20
-194.792154931367
 30
0.0
 10
-290.7514777739822
 20
-194.8424444833454
 30
0.0
  0
SPLINE
  5
151
330
1F
100
AcDbEntity
  8
Miura_Table_9590-01_2D
 62
     9
100
AcDbSpline
210
0.0
220
0.0
230
1.0
 70
     8
 71
     3
 72
    12
 73
     8
 74
     0
 42
0.0000000001
 43
0.0000000001
 40
28.42424652247416
 40
28.42424652247416
 40
28.42424652247416
 40
28.42424652247416
 40
30.15633428733689
 40
32.34208490377012
 40
34.43000439321897
 40
35.44727884989555
 40
36.5384794697283
 40
36.5384794697283
 40
36.5384794697283
 40
36.5384794697283
 10
23.36280269583567
 20
349.2193858453385
 30
0.0
 10
23.60683867629397
 20
348.6961186907005
 30
0.0
 10
24.10629748296894
 20
347.4878523241223
 30
0.0
 10
24.68094294103048
 20
345.5666967443788
 30
0.0
 10
24.98298817113027
 20
343.8262030788999
 30
0.0
 10
25.1099188327953
 20
342.4325553964306
 30
0.0
 10
25.12501452843844
 20
341.7295163163628
 30
0.0
 10
25.12999999588374
 20
341.3658729116689
 30
0.0
  0
SPLINE
  5
152
330
1F
100
AcDbEntity
  8
Miura_Table_9590-01_2D
 62
     9
100
AcDbSpline
210
0.0
220
0.0
230
1.0
 70
     8
 71
     3
 72
    12
 73
     8
 74
     0
 42
0.0000000001
 43
0.0000000001
 40
0.0
 40
0.0
 40
0.0
 40
0.0
 40
1.091200619832775
 40
2.10847507651029
 40
4.196394565958102
 40
6.382145182392427
 40
8.114214885926131
 40
8.114214885926131
 40
8.114214885926131
 40
8.114214885926131
 10
-25.12999999588192
 20
341.3658729116685
 30
0.0
 10
-25.12499798542376
 20
341.7295153390752
 30
0.0
 10
-25.10994835639485
 20
342.4325571405516
 30
0.0
 10
-24.982862653952
 20
343.8262609916644
 30
0.0
 10
-24.68109557694243
 20
345.566533211412
 30
0.0
 10
-24.106175284701
 20
347.4880488463018
 30
0.0
 10
-23.60677622960444
 20
348.6961740301502
 30
0.0
 10
-23.3627677710456
 20
349.2193881818079
 30
0.0
  0
SPLINE
  5
153
330
1F
100
AcDbEntity
  8
Miura_Table_9590-01_2D
 62
     9
100
AcDbSpline
210
0.0
220
0.0
230
1.0
 70
     8
 71
     3
 72
    10
 73
     6
 74
     0
 42
0.0000000001
 43
0.0000000001
 40
0.0
 40
0.0
 40
0.0
 40
0.0
 40
1.953155402088032
 40
3.893592821351477
 40
4.469112282819414
 40
4.469112282819414
 40
4.469112282819414
 40
4.469112282819414
 10
311.0890678691057
 20
-150.993479551156
 30
0.0
 10
311.5965982939906
 20
-151.4012487369625
 30
0.0
 10
312.5669657744756
 20
-152.2657110115049
 30
0.0
 10
313.5724621828659
 20
-153.3676175636324
 30
0.0
 10
314.0962104701271
 20
-154.0226770718925
 30
0.0
 10
314.2137785858466
 20
-154.1742564334414
 30
0.0
  0
SPLINE
  5
154
330
1F
100
AcDbEntity
  8
Miura_Table_9590-01_2D
 62
     9
100
AcDbSpline
210
0.0
220
0.0
230
1.0
 70
     8
 71
     3
 72
    10
 73
     6
 74
     0
 42
0.0000000001
 43
0.0000000001
 40
29.24666785956914
 40
29.24666785956914
 40
29.24666785956914
 40
29.24666785956914
 40
29.82218011666199
 40
31.76261295261775
 40
33.71577125458974
 40
33.71577125458974
 40
33.71577125458974
 40
33.71577125458974
 10
290.6257086470006
 20
-195.0299912152711
 30
0.0
 10
290.435655615721
 20
-195.0039644460376
 30
0.0
 10
289.6064867604035
 20
-194.8779154666741
 30
0.0
 10
288.1494467421498
 20
-194.5580734590921
 30
0.0
 10
286.9156351980791
 20
-194.1499601684706
 30
0.0
 10
286.3087255693281
 20
-193.9142966940705
 30
0.0
  0
SPLINE
  5
155
330
1F
100
AcDbEntity
  8
Miura_Table_9590-01_2D
 62
     9
100
AcDbSpline
210
0.0
220
0.0
230
1.0
 70
     8
 71
     3
 72
    10
 73
     6
 74
     0
 42
0.0000000001
 43
0.0000000001
 40
0.0
 40
0.0
 40
0.0
 40
0.0
 40
1.953155402088667
 40
3.89359282135179
 40
4.46911228281638
 40
4.46911228281638
 40
4.46911228281638
 40
4.46911228281638
 10
-286.3087230316596
 20
-193.9142958386878
 30
0.0
 10
-286.9156267178905
 20
-194.1499454869296
 30
0.0
 10
-288.1494567485015
 20
-194.5580772387653
 30
0.0
 10
-289.606484019436
 20
-194.8779093957816
 30
0.0
 10
-290.43565633821
 20
-195.0039589636084
 30
0.0
 10
-290.6257119738596
 20
-195.0299862577221
 30
0.0
  0
SPLINE
  5
156
330
1F
100
AcDbEntity
  8
Miura_Table_9590-01_2D
 62
     9
100
AcDbSpline
210
0.0
220
0.0
230
1.0
 70
     8
 71
     3
 72
    10
 73
     6
 74
     0
 42
0.0000000001
 43
0.0000000001
 40
29.24666785956805
 40
29.24666785956805
 40
29.24666785956805
 40
29.24666785956805
 40
29.82218011666223
 40
31.76261295261852
 40
33.71577125458879
 40
33.71577125458879
 40
33.71577125458879
 40
33.71577125458879
 10
-314.2137812157808
 20
-154.1742510735219
 30
0.0
 10
-314.0962148568063
 20
-154.022673704984
 30
0.0
 10
-313.5724688108978
 20
-153.3676169019334
 30
0.0
 10
-312.5669574980084
 20
-152.2657042355859
 30
0.0
 10
-311.5966152486717
 20
-151.4012487402476
 30
0.0
 10
-311.0890698787216
 20
-150.9934813211494
 30
0.0
  0
SPLINE
  5
157
330
1F
100
AcDbEntity
  8
Miura_Table_9590-01_2D
 62
     9
100
AcDbSpline
210
0.0
220
0.0
230
1.0
 70
     8
 71
     3
 72
    10
 73
     6
 74
     0
 42
0.0000000001
 43
0.0000000001
 40
0.0
 40
0.0
 40
0.0
 40
0.0
 40
1.953155402089815
 40
3.893592821353497
 40
4.469112282817966
 40
4.469112282817966
 40
4.469112282817966
 40
4.469112282817966
 10
-24.78034483744432
 20
344.9077753898437
 30
0.0
 10
-24.68097157609827
 20
345.5511942238919
 30
0.0
 10
-24.41750902597141
 20
346.8237882502723
 30
0.0
 10
-23.96597816342943
 20
348.2455269594153
 30
0.0
 10
-23.66055413191761
 20
349.0266360355011
 30
0.0
 10
-23.58806661198733
 20
349.2042426911626
 30
0.0
  0
SPLINE
  5
158
330
1F
100
AcDbEntity
  8
Miura_Table_9590-01_2D
 62
     9
100
AcDbSpline
210
0.0
220
0.0
230
1.0
 70
     8
 71
     3
 72
    10
 73
     6
 74
     0
 42
0.0000000001
 43
0.0000000001
 40
29.24666785957017
 40
29.24666785957017
 40
29.24666785957017
 40
29.24666785957017
 40
29.82218011666214
 40
31.76261295261828
 40
33.71577125458813
 40
33.71577125458813
 40
33.71577125458813
 40
33.71577125458813
 10
23.58807256878304
 20
349.2042422887926
 30
0.0
 10
23.66055924108799
 20
349.0266381510218
 30
0.0
 10
23.9659820504966
 20
348.2455323686083
 30
0.0
 10
24.41751075585944
 20
346.8237776946791
 30
0.0
 10
24.68098005059528
 20
345.5512089087209
 30
0.0
 10
24.78034430939442
 20
344.9077780152224
 30
0.0
  0
SPLINE
  5
159
330
1F
100
AcDbEntity
  8
Miura_Table_9590-01_2D
100
AcDbSpline
210
0.0
220
0.0
230
1.0
 70
     8
 71
     3
 72
    17
 73
    13
 74
     0
 42
0.0000000001
 43
0.0000000001
 40
8.11421488592736
 40
8.11421488592736
 40
8.11421488592736
 40
8.11421488592736
 40
8.490982845351999
 40
12.81895580244923
 40
17.27666290000628
 40
21.9353699469448
 40
26.72660484100899
 40
31.59160549890699
 40
34.06202637132714
 40
35.29851844026844
 40
35.89107656027871
 40
36.5384794697291
 40
36.5384794697291
 40
36.5384794697291
 40
36.5384794697291
 10
-290.7514777739822
 20
-194.8424444833454
 30
0.0
 10
-290.8765807973745
 20
-194.8533837035399
 30
0.0
 10
-292.440039663252
 20
-194.9748796729043
 30
0.0
 10
-295.5089099694305
 20
-194.8439557456604
 30
0.0
 10
-299.8746461100136
 20
-193.7399671477191
 30
0.0
 10
-304.087874156935
 20
-191.7570138312738
 30
0.0
 10
-307.9775126510622
 20
-188.9608003372859
 30
0.0
 10
-310.8171127291389
 20
-186.0636990912938
 30
0.0
 10
-312.5451557124743
 20
-183.7849328132809
 30
0.0
 10
-313.3383929019992
 20
-182.5910057862807
 30
0.0
 10
-313.7740315529591
 20
-181.8897561516275
 30
0.0
 10
-313.9833774970575
 20
-181.5333396044964
 30
0.0
 10
-314.0920039379062
 20
-181.3468765236792
 30
0.0
  0
SPLINE
  5
15A
330
1F
100
AcDbEntity
  8
Miura_Table_9590-01_2D
100
AcDbSpline
210
0.0
220
0.0
230
1.0
 70
    24
 71
     2
 72
     6
 73
     3
 74
     0
 42
0.0000000001
 43
0.0000000001
 40
0.0
 40
0.0
 40
0.0
 40
0.0049689727684098
 40
0.0049689727684098
 40
0.0049689727684098
 10
-314.0920039379062
 20
-181.3468765236792
 30
0.0
 10
-314.0932495822217
 20
-181.3447179029575
 30
0.0
 10
-314.0944952265372
 20
-181.3425592822358
 30
0.0
  0
SPLINE
  5
15B
330
1F
100
AcDbEntity
  8
Miura_Table_9590-01_2D
100
AcDbSpline
210
0.0
220
0.0
230
1.0
 70
    24
 71
     2
 72
     6
 73
     3
 74
     0
 42
0.0000000001
 43
0.0000000001
 40
0.0
 40
0.0
 40
0.0
 40
0.0049999976354267
 40
0.0049999976354267
 40
0.0049999976354267
 10
-314.0944952265372
 20
-181.3425592822358
 30
0.0
 10
-314.095749580978
 20
-181.3403877780921
 30
0.0
 10
-314.0970039354188
 20
-181.3382162739484
 30
0.0
  0
SPLINE
  5
15C
330
1F
100
AcDbEntity
  8
Miura_Table_9590-01_2D
100
AcDbSpline
210
0.0
220
0.0
230
1.0
 70
     8
 71
     3
 72
    17
 73
    13
 74
     0
 42
0.0000000001
 43
0.0000000001
 40
0.0
 40
0.0
 40
0.0
 40
0.0
 40
0.6474029094494481
 40
1.239961029460378
 40
2.476453098401701
 40
4.946873970821114
 40
9.81187462871941
 40
14.60310952278433
 40
19.26181656972226
 40
23.71952366727875
 40
28.04749662437724
 40
28.42424652247151
 40
28.42424652247151
 40
28.42424652247151
 40
28.42424652247151
 10
-314.0970039354188
 20
-181.3382162739484
 30
0.0
 10
-314.2041697051127
 20
-181.1509099550525
 30
0.0
 10
-314.4081705238486
 20
-180.7914071651861
 30
0.0
 10
-314.7974749608175
 20
-180.0634298001096
 30
0.0
 10
-315.4351875735201
 20
-178.7796580056423
 30
0.0
 10
-316.5442846490805
 20
-176.1436268969246
 30
0.0
 10
-317.6337947178627
 20
-172.2359841849917
 30
0.0
 10
-318.1103777557264
 20
-167.4693519956798
 30
0.0
 10
-317.7210600642156
 20
-162.8290446808474
 30
0.0
 10
-316.4941912444083
 20
-158.4962010702784
 30
0.0
 10
-315.0733059747289
 20
-155.7731511039876
 30
0.0
 10
-314.1862889255963
 20
-154.4797900153207
 30
0.0
 10
-314.1142609839799
 20
-154.376912284474
 30
0.0
  0
SPLINE
  5
15D
330
1F
100
AcDbEntity
  8
Miura_Table_9590-01_2D
100
AcDbSpline
210
0.0
220
0.0
230
1.0
 70
     8
 71
     3
 72
    17
 73
    13
 74
     0
 42
0.0000000001
 43
0.0000000001
 40
8.114214885926136
 40
8.114214885926136
 40
8.114214885926136
 40
8.114214885926136
 40
8.490982845352113
 40
12.81895580244948
 40
17.27666290000627
 40
21.93536994694479
 40
26.72660484100899
 40
31.591605498907
 40
34.06202637132719
 40
35.29851844026861
 40
35.89107656027873
 40
36.53847946972913
 40
36.53847946972913
 40
36.53847946972913
 40
36.53847946972913
 10
314.114245545028
 20
-154.3769436984612
 30
0.0
 10
314.1862706993105
 20
-154.4798164847122
 30
0.0
 10
315.073218728177
 20
-155.7730635956526
 30
0.0
 10
316.4942704343111
 20
-158.4962452053456
 30
0.0
 10
317.7210563332947
 20
-162.8290779082803
 30
0.0
 10
318.1103824101992
 20
-167.4693170870758
 30
0.0
 10
317.6336097370586
 20
-172.2359495815191
 30
0.0
 10
316.5444464997372
 20
-176.1436660087201
 30
0.0
 10
315.434998505355
 20
-178.7795782701248
 30
0.0
 10
314.7976459644733
 20
-180.0635053409805
 30
0.0
 10
314.4081652919476
 20
-180.7914042969088
 30
0.0
 10
314.2041724798519
 20
-181.1509114762432
 30
0.0
 10
314.0970039354206
 20
-181.3382162739489
 30
0.0
  0
SPLINE
  5
15E
330
1F
100
AcDbEntity
  8
Miura_Table_9590-01_2D
100
AcDbSpline
210
0.0
220
0.0
230
1.0
 70
    24
 71
     2
 72
     6
 73
     3
 74
     0
 42
0.0000000001
 43
0.0000000001
 40
0.0
 40
0.0
 40
0.0
 40
0.0049689727683289
 40
0.0049689727683289
 40
0.0049689727683289
 10
314.0970039354206
 20
-181.3382162739489
 30
0.0
 10
314.0957573371963
 20
-181.3403743439312
 30
0.0
 10
314.0945107389721
 20
-181.3425324139135
 30
0.0
  0
SPLINE
  5
15F
330
1F
100
AcDbEntity
  8
Miura_Table_9590-01_2D
100
AcDbSpline
210
0.0
220
0.0
230
1.0
 70
    24
 71
     2
 72
     6
 73
     3
 74
     0
 42
0.0000000001
 43
0.0000000001
 40
0.0
 40
0.0
 40
0.0
 40
0.0049999976354462
 40
0.0049999976354462
 40
0.0049999976354462
 10
314.0945107389721
 20
-181.3425324139135
 30
0.0
 10
314.0932573384396
 20
-181.3447044687966
 30
0.0
 10
314.0920039379071
 20
-181.3468765236796
 30
0.0
  0
SPLINE
  5
160
330
1F
100
AcDbEntity
  8
Miura_Table_9590-01_2D
100
AcDbSpline
210
0.0
220
0.0
230
1.0
 70
     8
 71
     3
 72
    17
 73
    13
 74
     0
 42
0.0000000001
 43
0.0000000001
 40
0.0
 40
0.0
 40
0.0
 40
0.0
 40
0.6474029094493622
 40
1.239961029460211
 40
2.476453098401548
 40
4.946873970820978
 40
9.81187462871942
 40
14.60310952278444
 40
19.26181656972225
 40
23.71952366727886
 40
28.04749662437723
 40
28.4242465224738
 40
28.4242465224738
 40
28.4242465224738
 40
28.4242465224738
 10
314.0920039379071
 20
-181.3468765236796
 30
0.0
 10
313.9833747923012
 20
-181.5333379620981
 30
0.0
 10
313.7740366529133
 20
-181.8897592484489
 30
0.0
 10
313.3382419798618
 20
-182.5908954632085
 30
0.0
 10
312.5453192995428
 20
-183.7850566833573
 30
0.0
 10
310.8169979320064
 20
-186.0635784804133
 30
0.0
 10
307.9776351089504
 20
-188.9609432336235
 30
0.0
 10
304.087902061442
 20
-191.7569923460842
 30
0.0
 10
299.8746191996761
 20
-193.7399869925092
 30
0.0
 10
295.5088321523917
 20
-194.8439092327275
 30
0.0
 10
292.440159070972
 20
-194.9749114764693
 30
0.0
 10
290.8765669873523
 20
-194.8534127226637
 30
0.0
 10
290.7514582881464
 20
-194.8424735608648
 30
0.0
  0
SPLINE
  5
161
330
1F
100
AcDbEntity
  8
Miura_Table_9590-01_2D
100
AcDbSpline
210
0.0
220
0.0
230
1.0
 70
     8
 71
     3
 72
    17
 73
    13
 74
     0
 42
0.0000000001
 43
0.0000000001
 40
8.114214885926131
 40
8.114214885926131
 40
8.114214885926131
 40
8.114214885926131
 40
8.490982845352077
 40
12.81895580244936
 40
17.27666290000615
 40
21.93536994694509
 40
26.72660484100907
 40
31.5916054989074
 40
34.06202637132732
 40
35.29851844026865
 40
35.89107656027872
 40
36.53847946972933
 40
36.53847946972933
 40
36.53847946972933
 40
36.53847946972933
 10
-23.3627677710456
 20
349.2193881818079
 30
0.0
 10
-23.30968990193541
 20
349.3332001882534
 30
0.0
 10
-22.63317906492385
 20
350.7479432685581
 30
0.0
 10
-20.98536046487607
 20
353.3402009510077
 30
0.0
 10
-17.84641022328015
 20
356.5690450560007
 30
0.0
 10
-14.02250825326155
 20
359.2263309183511
 30
0.0
 10
-9.656097085994588
 20
361.1967499188062
 30
0.0
 10
-5.727333770593759
 20
362.2073651000163
 30
0.0
 10
-2.88984279287979
 20
362.5645110834067
 30
0.0
 10
-1.459253062470452
 20
362.6545111272628
 30
0.0
 10
-0.6341337389876571
 20
362.681160448538
 30
0.0
 10
-0.2207949827907214
 20
362.6842510807413
 30
0.0
 10
-0.0049999975121864
 20
362.6850927976295
 30
0.0
  0
SPLINE
  5
162
330
1F
100
AcDbEntity
  8
Miura_Table_9590-01_2D
100
AcDbSpline
210
0.0
220
0.0
230
1.0
 70
    24
 71
     2
 72
     6
 73
     3
 74
     0
 42
0.0000000001
 43
0.0000000001
 40
0.0
 40
0.0
 40
0.0
 40
0.004968972768345
 40
0.004968972768345
 40
0.004968972768345
 10
-0.0049999975121864
 20
362.6850927976295
 30
0.0
 10
-0.0025077549723846
 20
362.6850922468902
 30
0.0
 10
-0.0000155124325829
 20
362.6850916961508
 30
0.0
  0
SPLINE
  5
163
330
1F
100
AcDbEntity
  8
Miura_Table_9590-01_2D
100
AcDbSpline
210
0.0
220
0.0
230
1.0
 70
    24
 71
     2
 72
     6
 73
     3
 74
     0
 42
0.0000000001
 43
0.0000000001
 40
0.0
 40
0.0
 40
0.0
 40
0.0049999976354052
 40
0.0049999976354052
 40
0.0049999976354052
 10
-0.0000155124325829
 20
362.6850916961508
 30
0.0
 10
0.0024922425404839
 20
362.6850922468902
 30
0.0
 10
0.0049999975135506
 20
362.6850927976295
 30
0.0
  0
SPLINE
  5
164
330
1F
100
AcDbEntity
  8
Miura_Table_9590-01_2D
100
AcDbSpline
210
0.0
220
0.0
230
1.0
 70
     8
 71
     3
 72
    17
 73
    13
 74
     0
 42
0.0000000001
 43
0.0000000001
 40
0.0
 40
0.0
 40
0.0
 40
0.0
 40
0.6474029094497074
 40
1.239961029460453
 40
2.476453098401801
 40
4.946873970821248
 40
9.811874628719307
 40
14.60310952278406
 40
19.26181656972217
 40
23.71952366727891
 40
28.04749662437724
 40
28.42424652247416
 40
28.42424652247416
 40
28.42424652247416
 40
28.42424652247416
 10
0.0049999975135506
 20
362.6850927976295
 30
0.0
 10
0.2207949128123801
 20
362.6842479171514
 30
0.0
 10
0.634133870938058
 20
362.6811664136364
 30
0.0
 10
1.459232980959314
 20
362.6543252633205
 30
0.0
 10
2.889868273977299
 20
362.5647146890003
 30
0.0
 10
5.727286717078641
 20
362.2072053773397
 30
0.0
 10
9.656159608911366
 20
361.1969274186164
 30
0.0
 10
14.02247569428891
 20
359.2263443417654
 30
0.0
 10
17.84644086454227
 20
356.5690316733587
 30
0.0
 10
20.98535909201746
 20
353.3401103030067
 30
0.0
 10
22.63314690376052
 20
350.7480625804581
 30
0.0
 10
23.30972193824661
 20
349.3332027379848
 30
0.0
 10
23.36280269583567
 20
349.2193858453385
 30
0.0
  0
SPLINE
  5
165
330
1F
100
AcDbEntity
  8
Miura_Table_9590-01_2D
100
AcDbSpline
210
0.0
220
0.0
230
1.0
 70
     8
 71
     3
 72
    14
 73
    10
 74
     0
 42
0.0000000001
 43
0.0000000001
 40
4.46911228281638
 40
4.46911228281638
 40
4.46911228281638
 40
4.46911228281638
 40
7.847355141899257
 40
11.91041431683331
 40
16.08262218525761
 40
20.36384899089639
 40
24.75401733124737
 40
29.18049075025455
 40
33.71426896077073
 40
33.71426896077073
 40
33.71426896077073
 40
33.71426896077073
 10
-290.6257119738596
 20
-195.0299862577221
 30
0.0
 10
-291.7413199365315
 20
-195.1827639244343
 30
0.0
 10
-294.2278547251958
 20
-195.3063050349608
 30
0.0
 10
-298.0829420215314
 20
-194.7969136693844
 30
0.0
 10
-302.0646242760886
 20
-193.495325964117
 30
0.0
 10
-305.8547574636132
 20
-191.4715439241441
 30
0.0
 10
-309.3255825422948
 20
-188.7993624809075
 30
0.0
 10
-312.3882665442488
 20
-185.5522113894082
 30
0.0
 10
-314.0824246679894
 20
-183.0815440883316
 30
0.0
 10
-314.8380452550214
 20
-181.7726981689822
 30
0.0
  0
SPLINE
  5
166
330
1F
100
AcDbEntity
  8
Miura_Table_9590-01_2D
100
AcDbSpline
210
0.0
220
0.0
230
1.0
 70
     8
 71
     3
 72
    14
 73
    10
 74
     0
 42
0.0000000001
 43
0.0000000001
 40
0.0
 40
0.0
 40
0.0
 40
0.0
 40
4.517138906909165
 40
8.979902650677893
 40
13.35193316095314
 40
17.61498633512991
 40
21.78720833965956
 40
25.85028218837527
 40
29.24666785956805
 40
29.24666785956805
 40
29.24666785956805
 40
29.24666785956805
 10
-314.8380452550214
 20
-181.7726981689822
 30
0.0
 10
-315.5909318047256
 20
-180.4687038469565
 30
0.0
 10
-316.8873942083294
 20
-177.7608058030238
 30
0.0
 10
-318.1683647831887
 20
-173.4841738243882
 30
0.0
 10
-318.7455854827676
 20
-169.1421649931907
 30
0.0
 10
-318.6051075665664
 20
-164.8601490892594
 30
0.0
 10
-317.7458513318606
 20
-160.7664089068302
 30
0.0
 10
-316.2602051501003
 20
-157.1662165157188
 30
0.0
 10
-314.9075991007423
 20
-155.0687849364761
 30
0.0
 10
-314.2137812157808
 20
-154.1742510735219
 30
0.0
  0
SPLINE
  5
167
330
1F
100
AcDbEntity
  8
Miura_Table_9590-01_2D
100
AcDbSpline
210
0.0
220
0.0
230
1.0
 70
     8
 71
     3
 72
    14
 73
    10
 74
     0
 42
0.0000000001
 43
0.0000000001
 40
4.469112282819414
 40
4.469112282819414
 40
4.469112282819414
 40
4.469112282819414
 40
7.847355141898799
 40
11.91041431683293
 40
16.08262218525716
 40
20.363848990896
 40
24.75401733124694
 40
29.1804907502542
 40
33.7142689607704
 40
33.7142689607704
 40
33.7142689607704
 40
33.7142689607704
 10
314.2137785858466
 20
-154.1742564334414
 30
0.0
 10
314.9038919076846
 20
-155.064012436422
 30
0.0
 10
316.254149042142
 20
-157.1556441755343
 30
0.0
 10
317.7405468272564
 20
-160.7489433907572
 30
0.0
 10
318.6041799365184
 20
-164.8479752256353
 30
0.0
 10
318.7465998719399
 20
-169.1422178697456
 30
0.0
 10
318.1678353979178
 20
-173.4841312815921
 30
0.0
 10
316.887062063732
 20
-177.7600689768003
 30
0.0
 10
315.594480478572
 20
-180.4625866005253
 30
0.0
 10
314.8387969562918
 20
-181.771396184192
 30
0.0
  0
SPLINE
  5
168
330
1F
100
AcDbEntity
  8
Miura_Table_9590-01_2D
100
AcDbSpline
210
0.0
220
0.0
230
1.0
 70
     8
 71
     3
 72
    14
 73
    10
 74
     0
 42
0.0000000001
 43
0.0000000001
 40
0.0
 40
0.0
 40
0.0
 40
0.0
 40
4.517138906909315
 40
8.97990265067786
 40
13.35193316095309
 40
17.61498633512963
 40
21.78720833966017
 40
25.85028218837419
 40
29.24666785956914
 40
29.24666785956914
 40
29.24666785956914
 40
29.24666785956914
 10
314.8387969562918
 20
-181.771396184192
 30
0.0
 10
314.0859480218769
 20
-183.0754122234156
 30
0.0
 10
312.3890707267766
 20
-185.5521306219571
 30
0.0
 10
309.3258840780691
 20
-188.7997996705994
 30
0.0
 10
305.8542044765845
 20
-191.4706918756248
 30
0.0
 10
302.0756309662738
 20
-193.4900423834896
 30
0.0
 10
298.1007198544503
 20
-194.792774747091
 30
0.0
 10
294.2400386943502
 20
-195.3062636082072
 30
0.0
 10
291.7473066393461
 20
-195.1835881977713
 30
0.0
 10
290.6257086470006
 20
-195.0299912152711
 30
0.0
  0
SPLINE
  5
169
330
1F
100
AcDbEntity
  8
Miura_Table_9590-01_2D
100
AcDbSpline
210
0.0
220
0.0
230
1.0
 70
     8
 71
     3
 72
    14
 73
    10
 74
     0
 42
0.0000000001
 43
0.0000000001
 40
4.469112282817966
 40
4.469112282817966
 40
4.469112282817966
 40
4.469112282817966
 40
7.84735514190067
 40
11.91041431683501
 40
16.08262218525901
 40
20.36384899089777
 40
24.75401733124877
 40
29.18049075025599
 40
33.71426896077235
 40
33.71426896077235
 40
33.71426896077235
 40
33.71426896077235
 10
-23.58806661198733
 20
349.2042426911626
 30
0.0
 10
-23.1625719711565
 20
350.2467763608558
 30
0.0
 10
-22.02629431695463
 20
352.461949210495
 30
0.0
 10
-19.65760480572862
 20
355.5458570601426
 30
0.0
 10
-16.53955566043351
 20
358.3433011897528
 30
0.0
 10
-12.89184240833038
 20
360.6137617938907
 30
0.0
 10
-8.842252855626612
 20
362.2834937625015
 30
0.0
 10
-4.498795519482317
 20
363.3122803662109
 30
0.0
 10
-1.512055810581786
 20
363.5441306888571
 30
0.0
 10
-0.0007517012686549
 20
363.5440943531757
 30
0.0
  0
SPLINE
  5
16A
330
1F
100
AcDbEntity
  8
Miura_Table_9590-01_2D
100
AcDbSpline
210
0.0
220
0.0
230
1.0
 70
     8
 71
     3
 72
    14
 73
    10
 74
     0
 42
0.0000000001
 43
0.0000000001
 40
0.0
 40
0.0
 40
0.0
 40
0.0
 40
4.517138906908955
 40
8.979902650677984
 40
13.35193316095315
 40
17.61498633513034
 40
21.78720833965958
 40
25.85028218837385
 40
29.24666785957017
 40
29.24666785957017
 40
29.24666785957017
 40
29.24666785957017
 10
-0.0007517012686549
 20
363.5440943531757
 30
0.0
 10
1.504983782848691
 20
363.5441160703728
 30
0.0
 10
4.498323481555579
 20
363.3129364249851
 30
0.0
 10
8.84248070511785
 20
362.2839734949893
 30
0.0
 10
12.89138100618311
 20
360.6128568688166
 30
0.0
 10
16.52947660029076
 20
358.350191472749
 30
0.0
 10
19.64513147741491
 20
355.559183653921
 30
0.0
 10
22.02016645575556
 20
352.4724801239267
 30
0.0
 10
23.16029246140019
 20
350.2523731342481
 30
0.0
 10
23.58807256878304
 20
349.2042422887926
 30
0.0
  0
LINE
  5
16B
330
1F
100
AcDbEntity
  8
Miura_Table_9590-01_2D
100
AcDbLine
 10
1052.675057535198
 20
1219.326994561536
 30
0.0
 11
1052.675057537765
 21
1542.537243187798
 31
0.0
  0
LINE
  5
16C
330
1F
100
AcDbEntity
  8
Miura_Table_9590-01_2D
100
AcDbLine
 10
1002.675292717972
 20
1542.537243187798
 30
0.0
 11
1002.67551669021
 21
1224.326994577785
 31
0.0
  0
SPLINE
  5
16D
330
1F
100
AcDbEntity
  8
Miura_Table_9590-01_2D
100
AcDbSpline
210
0.0
220
0.0
230
1.0
 70
    24
 71
     2
 72
     6
 73
     3
 74
     0
 42
0.0000000001
 43
0.0000000001
 40
-47.99848741513632
 40
-47.99848741513632
 40
-47.99848741513632
 40
0.0
 40
0.0
 40
0.0
 10
1119.243090655939
 20
1566.536486887413
 30
0.0
 10
1098.458902060478
 20
1554.536865037606
 30
0.0
 10
1077.674713465016
 20
1542.537243187798
 30
0.0
  0
SPLINE
  5
16E
330
1F
100
AcDbEntity
  8
Miura_Table_9590-01_2D
100
AcDbSpline
210
0.0
220
0.0
230
1.0
 70
    24
 71
     3
 72
    10
 73
     6
 74
     0
 42
0.0000000001
 43
0.0000000001
 40
0.0
 40
0.0
 40
0.0
 40
0.0
 40
0.0007038564752122
 40
0.0009354610935191
 40
50.0009354610936
 40
50.0009354610936
 40
50.0009354610936
 40
50.0009354610936
 10
1077.674713465016
 20
1542.537243187798
 30
0.0
 10
1077.673884711898
 20
1542.537243187801
 30
0.0
 10
1077.675518385321
 20
1542.537243187798
 30
0.0
 10
1061.008680097499
 20
1542.5372431878
 30
0.0
 10
1044.34179718006
 20
1542.537243187797
 30
0.0
 10
1027.675181184516
 20
1542.537243187798
 30
0.0
  0
SPLINE
  5
16F
330
1F
100
AcDbEntity
  8
Miura_Table_9590-01_2D
100
AcDbSpline
210
0.0
220
0.0
230
1.0
 70
    24
 71
     2
 72
     6
 73
     3
 74
     0
 42
0.0000000001
 43
0.0000000001
 40
0.0
 40
0.0
 40
0.0
 40
49.99906453890648
 40
49.99906453890648
 40
49.99906453890648
 10
1027.675181184516
 20
1542.537243187798
 30
0.0
 10
1002.675415044265
 20
1542.537243187798
 30
0.0
 10
977.6756489040149
 20
1542.537243187798
 30
0.0
  0
SPLINE
  5
170
330
1F
100
AcDbEntity
  8
Miura_Table_9590-01_2D
100
AcDbSpline
210
0.0
220
0.0
230
1.0
 70
    24
 71
     2
 72
     6
 73
     3
 74
     0
 42
0.0000000001
 43
0.0000000001
 40
-47.9984874151363
 40
-47.9984874151363
 40
-47.9984874151363
 40
0.0
 40
0.0
 40
0.0
 10
977.6756489040149
 20
1542.537243187798
 30
0.0
 10
956.8914603085541
 20
1554.536865037606
 30
0.0
 10
936.1072717130933
 20
1566.536486887413
 30
0.0
  0
SPLINE
  5
171
330
1F
100
AcDbEntity
  8
Miura_Table_9590-01_2D
100
AcDbSpline
210
0.0
220
0.0
230
1.0
 70
    24
 71
     3
 72
     9
 73
     5
 74
     0
 42
0.0000000001
 43
0.0000000001
 40
0.0
 40
0.0
 40
0.0
 40
0.0
 40
0.0006373261368182
 40
137.5005588484815
 40
137.5005588484815
 40
137.5005588484815
 40
137.5005588484815
 10
1165.174539830231
 20
1566.537243187798
 30
0.0
 10
1165.175562255901
 20
1566.537243187797
 30
0.0
 10
1119.342161242986
 20
1566.537243187797
 30
0.0
 10
1073.508516602748
 20
1566.537243187797
 30
0.0
 10
1027.675218409252
 20
1566.537243187798
 30
0.0
  0
SPLINE
  5
172
330
1F
100
AcDbEntity
  8
Miura_Table_9590-01_2D
100
AcDbSpline
210
0.0
220
0.0
230
1.0
 70
    24
 71
     2
 72
     6
 73
     3
 74
     0
 42
0.0000000001
 43
0.0000000001
 40
0.0
 40
0.0
 40
0.0
 40
137.4994130277261
 40
137.4994130277261
 40
137.4994130277261
 10
1027.675218409252
 20
1566.537243187798
 30
0.0
 10
958.9254932830045
 20
1566.537243187798
 30
0.0
 10
890.1757681567565
 20
1566.537243187798
 30
0.0
  0
SPLINE
  5
173
330
1F
100
AcDbEntity
  8
Miura_Table_9590-01_2D
100
AcDbSpline
210
0.0
220
0.0
230
1.0
 70
    12
 71
     2
 72
     6
 73
     3
 74
     0
 42
0.0000000001
 43
0.0000000001
 40
-0.0017236465548061
 40
-0.0017236465548061
 40
-0.0017236465548061
 40
0.0
 40
0.0
 40
0.0
 10
1165.177041619374
 20
1566.537243883683
 30
0.0
 41
1.0
 10
1165.17790344214
 20
1566.537244823505
 30
0.0
 41
1.0
 10
1165.178765264904
 20
1566.537245762989
 30
0.0
 41
1.0
  0
SPLINE
  5
174
330
1F
100
AcDbEntity
  8
Miura_Table_9590-01_2D
100
AcDbSpline
210
0.0
220
0.0
230
1.0
 70
    12
 71
     2
 72
     6
 73
     3
 74
     0
 42
0.0000000001
 43
0.0000000001
 40
0.0
 40
0.0
 40
0.0
 40
3.923393678308207
 40
3.923393678308207
 40
3.923393678308207
 10
1165.178765264904
 20
1566.537245762989
 30
0.0
 41
1.0
 10
1167.675174331697
 20
1566.540831545725
 30
0.0
 41
0.7076128936508792
 10
1167.675172346367
 20
1569.037243187798
 30
0.0
 41
0.9999999999935767
  0
SPLINE
  5
175
330
1F
100
AcDbEntity
  8
Miura_Table_9590-01_2D
100
AcDbSpline
210
0.0
220
0.0
230
1.0
 70
    24
 71
     2
 72
     6
 73
     3
 74
     0
 42
0.0000000001
 43
0.0000000001
 40
0.0
 40
0.0
 40
0.0
 40
3.5
 40
3.5
 40
3.5
 10
1167.675172346367
 20
1569.037243187798
 30
0.0
 10
1167.675008263387
 20
1570.787243187798
 30
0.0
 10
1167.674844180407
 20
1572.537243187798
 30
0.0
  0
SPLINE
  5
176
330
1F
100
AcDbEntity
  8
Miura_Table_9590-01_2D
100
AcDbSpline
210
0.0
220
0.0
230
1.0
 70
    24
 71
     2
 72
     6
 73
     3
 74
     0
 42
0.0000000001
 43
0.0000000001
 40
-139.9993259299168
 40
-139.9993259299168
 40
-139.9993259299168
 40
0.0
 40
0.0
 40
0.0
 10
1167.674844180407
 20
1572.537243187798
 30
0.0
 10
1097.675012682461
 20
1572.537243187798
 30
0.0
 10
1027.675181184516
 20
1572.537243187798
 30
0.0
  0
SPLINE
  5
177
330
1F
100
AcDbEntity
  8
Miura_Table_9590-01_2D
100
AcDbSpline
210
0.0
220
0.0
230
1.0
 70
    24
 71
     3
 72
     9
 73
     5
 74
     0
 42
0.0000000001
 43
0.0000000001
 40
-140.0006740700831
 40
-140.0006740700831
 40
-140.0006740700831
 40
-140.0006740700831
 40
-0.000588034942917
 40
0.0
 40
0.0
 40
0.0
 40
0.0
 10
1027.675181184516
 20
1572.537243187798
 30
0.0
 10
981.0086018573634
 20
1572.537243187796
 30
0.0
 10
934.3414994859554
 20
1572.537243187799
 30
0.0
 10
887.6748784983852
 20
1572.5372431878
 30
0.0
 10
887.6755181886251
 20
1572.537243187798
 30
0.0
  0
SPLINE
  5
178
330
1F
100
AcDbEntity
  8
Miura_Table_9590-01_2D
100
AcDbSpline
210
0.0
220
0.0
230
1.0
 70
    24
 71
     2
 72
     6
 73
     3
 74
     0
 42
0.0000000001
 43
0.0000000001
 40
0.0
 40
0.0
 40
0.0
 40
3.5
 40
3.5
 40
3.5
 10
887.6755181886251
 20
1572.537243187798
 30
0.0
 10
887.6753347403596
 20
1570.787243187798
 30
0.0
 10
887.6751512920941
 20
1569.037243187798
 30
0.0
  0
SPLINE
  5
179
330
1F
100
AcDbEntity
  8
Miura_Table_9590-01_2D
100
AcDbSpline
210
0.0
220
0.0
230
1.0
 70
    12
 71
     2
 72
     6
 73
     3
 74
     0
 42
0.0000000001
 43
0.0000000001
 40
0.0
 40
0.0
 40
0.0
 40
3.923569074038741
 40
3.923569074038741
 40
3.923569074038741
 10
887.6751512920944
 20
1569.037243187799
 30
0.0
 41
0.9999999999897549
 10
887.6751266417042
 20
1566.540665537721
 30
0.0
 41
0.7075916723679009
 10
890.1717019492385
 20
1566.537245539235
 30
0.0
 41
1.0
  0
SPLINE
  5
17A
330
1F
100
AcDbEntity
  8
Miura_Table_9590-01_2D
100
AcDbSpline
210
0.0
220
0.0
230
1.0
 70
    28
 71
     2
 72
     6
 73
     3
 74
     0
 42
0.0000000001
 43
0.0000000001
 40
0.0
 40
0.0
 40
0.0
 40
0.0017079348288815
 40
0.0017079348288815
 40
0.0017079348288815
 10
890.1717019492385
 20
1566.537245539235
 30
0.0
 41
1.0
 10
890.1725559162
 20
1566.537244659818
 30
0.0
 41
1.0
 10
890.1734098831616
 20
1566.537243780293
 30
0.0
 41
1.0
  0
LINE
  5
17B
330
1F
100
AcDbEntity
  8
Miura_Table_9590-01_2D
100
AcDbLine
 10
677.6751811845157
 20
1582.537243236149
 30
0.0
 11
677.6751811845157
 21
1572.537243236149
 31
0.0
  0
LINE
  5
17C
330
1F
100
AcDbEntity
  8
Miura_Table_9590-01_2D
100
AcDbLine
 10
677.6751811845157
 20
1572.537243236149
 30
0.0
 11
1377.675181184516
 21
1572.537243236149
 31
0.0
  0
LINE
  5
17D
330
1F
100
AcDbEntity
  8
Miura_Table_9590-01_2D
100
AcDbLine
 10
1377.675181184516
 20
1572.537243236149
 30
0.0
 11
1377.675181184516
 21
1582.537243236149
 31
0.0
  0
LINE
  5
17E
330
1F
100
AcDbEntity
  8
Miura_Table_9590-01_2D
100
AcDbLine
 10
1377.675181184516
 20
1582.537243236149
 30
0.0
 11
677.6751811845157
 21
1582.537243236149
 31
0.0
  0
ENDSEC
  0
SECTION
  2
OBJECTS
  0
DICTIONARY
  5
C
330
0
100
AcDbDictionary
281
     1
  3
ACAD_GROUP
350
D
  3
ACAD_LAYOUT
350
1A
  3
ACAD_MLEADERSTYLE
350
180
  3
ACAD_MLINESTYLE
350
17
  3
ACAD_PLOTSETTINGS
350
19
  3
ACAD_PLOTSTYLENAME
350
E
  3
ACAD_TABLESTYLE
350
17F
  3
ACAD_VISUALSTYLE
350
2A
  0
DICTIONARY
  5
D
102
{ACAD_REACTORS
330
C
102
}
330
C
100
AcDbDictionary
281
     1
  0
DICTIONARY
  5
1A
102
{ACAD_REACTORS
330
C
102
}
330
C
100
AcDbDictionary
281
     1
  3
Layout1
350
1E
  3
Layout2
350
26
  3
Model
350
22
  0
DICTIONARY
  5
180
102
{ACAD_REACTORS
330
C
102
}
330
C
100
AcDbDictionary
281
     1
  0
DICTIONARY
  5
17
102
{ACAD_REACTORS
330
C
102
}
330
C
100
AcDbDictionary
281
     1
  3
Standard
350
18
  0
DICTIONARY
  5
19
102
{ACAD_REACTORS
330
C
102
}
330
C
100
AcDbDictionary
281
     1
  0
ACDBDICTIONARYWDFLT
  5
E
102
{ACAD_REACTORS
330
C
102
}
330
C
100
AcDbDictionary
281
     1
  3
Normal
350
F
100
AcDbDictionaryWithDefault
340
F
  0
DICTIONARY
  5
17F
102
{ACAD_REACTORS
330
C
102
}
330
C
100
AcDbDictionary
281
     1
  0
DICTIONARY
  5
2A
102
{ACAD_REACTORS
330
C
102
}
330
C
100
AcDbDictionary
281
     1
  3
2dWireframe
350
2F
  3
3D Hidden
350
31
  3
3dWireframe
350
30
  3
Basic
350
32
  3
Brighten
350
36
  3
ColorChange
350
3A
  3
Conceptual
350
34
  3
Dim
350
35
  3
Facepattern
350
39
  3
Flat
350
2B
  3
FlatWithEdges
350
2C
  3
Gouraud
350
2D
  3
GouraudWithEdges
350
2E
  3
Linepattern
350
38
  3
Realistic
350
33
  3
Thicken
350
37
  0
LAYOUT
  5
1E
102
{ACAD_REACTORS
330
1A
102
}
330
1A
100
AcDbPlotSettings
  1

  2
none_device
  4

  6

 40
0.0
 41
0.0
 42
0.0
 43
0.0
 44
0.0
 45
0.0
 46
0.0
 47
0.0
 48
0.0
 49
0.0
140
0.0
141
0.0
142
1.0
143
1.0
 70
   688
 72
     0
 73
     0
 74
     5
  7

 75
    16
 76
     0
 77
     2
 78
   300
147
1.0
148
0.0
149
0.0
100
AcDbLayout
  1
Layout1
 70
     1
 71
     1
 10
0.0
 20
0.0
 11
12.0
 21
9.0
 12
0.0
 22
0.0
 32
0.0
 14
1.000000000000000E+20
 24
1.000000000000000E+20
 34
1.000000000000000E+20
 15
-1.000000000000000E+20
 25
-1.000000000000000E+20
 35
-1.000000000000000E+20
146
0.0
 13
0.0
 23
0.0
 33
0.0
 16
1.0
 26
0.0
 36
0.0
 17
0.0
 27
1.0
 37
0.0
 76
     0
330
1B
  0
LAYOUT
  5
26
102
{ACAD_REACTORS
330
1A
102
}
330
1A
100
AcDbPlotSettings
  1

  2
none_device
  4

  6

 40
0.0
 41
0.0
 42
0.0
 43
0.0
 44
0.0
 45
0.0
 46
0.0
 47
0.0
 48
0.0
 49
0.0
140
0.0
141
0.0
142
1.0
143
1.0
 70
   688
 72
     0
 73
     0
 74
     5
  7

 75
    16
 76
     0
 77
     2
 78
   300
147
1.0
148
0.0
149
0.0
100
AcDbLayout
  1
Layout2
 70
     1
 71
     2
 10
0.0
 20
0.0
 11
0.0
 21
0.0
 12
0.0
 22
0.0
 32
0.0
 14
0.0
 24
0.0
 34
0.0
 15
0.0
 25
0.0
 35
0.0
146
0.0
 13
0.0
 23
0.0
 33
0.0
 16
1.0
 26
0.0
 36
0.0
 17
0.0
 27
1.0
 37
0.0
 76
     0
330
23
  0
LAYOUT
  5
22
102
{ACAD_REACTORS
330
1A
102
}
330
1A
100
AcDbPlotSettings
  1

  2
none_device
  4

  6

 40
0.0
 41
0.0
 42
0.0
 43
0.0
 44
0.0
 45
0.0
 46
0.0
 47
0.0
 48
0.0
 49
0.0
140
0.0
141
0.0
142
1.0
143
1.0
 70
  1712
 72
     0
 73
     0
 74
     0
  7

 75
     0
 76
     0
 77
     2
 78
   300
147
1.0
148
0.0
149
0.0
100
AcDbLayout
  1
Model
 70
     1
 71
     0
 10
0.0
 20
0.0
 11
12.0
 21
9.0
 12
0.0
 22
0.0
 32
0.0
 14
-350.0
 24
-350.0
 34
0.0
 15
2355.802436807888
 25
1582.537243236149
 35
0.0
146
0.0
 13
0.0
 23
0.0
 33
0.0
 16
1.0
 26
0.0
 36
0.0
 17
0.0
 27
1.0
 37
0.0
 76
     0
330
1F
331
29
  0
MLINESTYLE
  5
18
102
{ACAD_REACTORS
330
17
102
}
330
17
100
AcDbMlineStyle
  2
Standard
 70
     0
  3

 62
   256
 51
90.0
 52
90.0
 71
     2
 49
0.5
 62
   256
  6
BYLAYER
 49
-0.5
 62
   256
  6
BYLAYER
  0
ACDBPLACEHOLDER
  5
F
102
{ACAD_REACTORS
330
E
102
}
330
E
  0
VISUALSTYLE
  5
2F
102
{ACAD_REACTORS
330
2A
102
}
330
2A
100
AcDbVisualStyle
  2
2dWireframe
 70
     4
 71
     0
 72
     2
 73
     0
 90
        0
 40
-0.6
 41
-30.0
 62
     5
 63
     7
421
 16777215
 74
     1
 91
        4
 64
     7
 65
   257
 75
     1
175
     1
 42
1.0
 92
        0
 66
   257
 43
1.0
 76
     1
 77
     6
 78
     2
 67
     7
 79
     5
170
     0
171
     0
290
     0
174
     0
 93
        1
 44
0.0
173
     0
291
     0
 45
0.0
1001
ACAD
1000
AcDbSavedByObjectVersion
1070
     0
  0
VISUALSTYLE
  5
31
102
{ACAD_REACTORS
330
2A
102
}
330
2A
100
AcDbVisualStyle
  2
3D Hidden
 70
     6
 71
     1
 72
     2
 73
     2
 90
        0
 40
-0.6
 41
-30.0
 62
     5
 63
     7
421
 16777215
 74
     2
 91
        2
 64
     7
 65
   257
 75
     2
175
     1
 42
40.0
 92
        0
 66
   257
 43
1.0
 76
     1
 77
     6
 78
     2
 67
     7
 79
     3
170
     0
171
     0
290
     0
174
     0
 93
        1
 44
0.0
173
     0
291
     0
 45
0.0
1001
ACAD
1000
AcDbSavedByObjectVersion
1070
     0
  0
VISUALSTYLE
  5
30
102
{ACAD_REACTORS
330
2A
102
}
330
2A
100
AcDbVisualStyle
  2
3dWireframe
 70
     5
 71
     0
 72
     2
 73
     0
 90
        0
 40
-0.6
 41
-30.0
 62
     5
 63
     7
421
 16777215
 74
     1
 91
        4
 64
     7
 65
   257
 75
     1
175
     1
 42
1.0
 92
        0
 66
   257
 43
1.0
 76
     1
 77
     6
 78
     2
 67
     7
 79
     5
170
     0
171
     0
290
     0
174
     0
 93
        1
 44
0.0
173
     0
291
     0
 45
0.0
1001
ACAD
1000
AcDbSavedByObjectVersion
1070
     0
  0
VISUALSTYLE
  5
32
102
{ACAD_REACTORS
330
2A
102
}
330
2A
100
AcDbVisualStyle
  2
Basic
 70
     7
 71
     1
 72
     0
 73
     1
 90
        0
 40
-0.6
 41
-30.0
 62
     5
 63
     7
421
 16777215
 74
     0
 91
        4
 64
     7
 65
   257
 75
     1
175
     1
 42
1.0
 92
        8
 66
     7
 43
1.0
 76
     1
 77
     6
 78
     2
 67
     7
 79
     5
170
     0
171
     0
290
     0
174
     0
 93
        1
 44
0.0
173
     0
291
     1
 45
0.0
1001
ACAD
1000
AcDbSavedByObjectVersion
1070
     0
  0
VISUALSTYLE
  5
36
102
{ACAD_REACTORS
330
2A
102
}
330
2A
100
AcDbVisualStyle
  2
Brighten
 70
    12
 71
     2
 72
     2
 73
     0
 90
        0
 40
-0.6
 41
-30.0
 62
     5
 63
     7
421
 16777215
 74
     1
 91
        4
 64
     7
 65
   257
 75
     1
175
     1
 42
1.0
 92
        8
 66
     7
 43
1.0
 76
     1
 77
     6
 78
     2
 67
     7
 79
     5
170
     0
171
     0
290
     0
174
     0
 93
        1
 44
50.0
173
     0
291
     1
 45
0.0
1001
ACAD
1000
AcDbSavedByObjectVersion
1070
     0
  0
VISUALSTYLE
  5
3A
102
{ACAD_REACTORS
330
2A
102
}
330
2A
100
AcDbVisualStyle
  2
ColorChange
 70
    16
 71
     2
 72
     2
 73
     3
 90
        0
 40
-0.6
 41
-30.0
 62
     5
 63
     8
421
  8421504
 74
     1
 91
        4
 64
     7
 65
   257
 75
     1
175
     1
 42
1.0
 92
        8
 66
     8
424
  8421504
 43
1.0
 76
     1
 77
     6
 78
     2
 67
     7
 79
     5
170
     0
171
     0
290
     0
174
     0
 93
        1
 44
0.0
173
     0
291
     1
 45
0.0
1001
ACAD
1000
AcDbSavedByObjectVersion
1070
     0
  0
VISUALSTYLE
  5
34
102
{ACAD_REACTORS
330
2A
102
}
330
2A
100
AcDbVisualStyle
  2
Conceptual
 70
     9
 71
     3
 72
     2
 73
     0
 90
        0
 40
-0.6
 41
-30.0
 62
     5
 63
     7
421
 16777215
 74
     2
 91
        2
 64
     7
 65
   257
 75
     1
175
     1
 42
40.0
 92
        8
 66
     7
 43
1.0
 76
     1
 77
     6
 78
     2
 67
     7
 79
     3
170
     0
171
     0
290
     0
174
     0
 93
        1
 44
0.0
173
     0
291
     0
 45
0.0
1001
ACAD
1000
AcDbSavedByObjectVersion
1070
     0
  0
VISUALSTYLE
  5
35
102
{ACAD_REACTORS
330
2A
102
}
330
2A
100
AcDbVisualStyle
  2
Dim
 70
    11
 71
     2
 72
     2
 73
     0
 90
        0
 40
-0.6
 41
-30.0
 62
     5
 63
     7
421
 16777215
 74
     1
 91
        4
 64
     7
 65
   257
 75
     1
175
     1
 42
1.0
 92
        8
 66
     7
 43
1.0
 76
     1
 77
     6
 78
     2
 67
     7
 79
     5
170
     0
171
     0
290
     0
174
     0
 93
        1
 44
-50.0
173
     0
291
     1
 45
0.0
1001
ACAD
1000
AcDbSavedByObjectVersion
1070
     0
  0
VISUALSTYLE
  5
39
102
{ACAD_REACTORS
330
2A
102
}
330
2A
100
AcDbVisualStyle
  2
Facepattern
 70
    15
 71
     2
 72
     2
 73
     0
 90
        0
 40
-0.6
 41
-30.0
 62
     5
 63
     7
421
 16777215
 74
     1
 91
        4
 64
     7
 65
   257
 75
     1
175
     1
 42
1.0
 92
        8
 66
     7
 43
1.0
 76
     1
 77
     6
 78
     2
 67
     7
 79
     5
170
     0
171
     0
290
     0
174
     0
 93
        1
 44
0.0
173
     0
291
     1
 45
0.0
1001
ACAD
1000
AcDbSavedByObjectVersion
1070
     0
  0
VISUALSTYLE
  5
2B
102
{ACAD_REACTORS
330
2A
102
}
330
2A
100
AcDbVisualStyle
  2
Flat
 70
     0
 71
     2
 72
     1
 73
     1
 90
        2
 40
-0.6
 41
30.0
 62
     5
 63
     7
421
 16777215
 74
     0
 91
        4
 64
     7
 65
   257
 75
     1
175
     1
 42
1.0
 92
        8
 66
     7
 43
1.0
 76
     1
 77
     6
 78
     2
 67
     7
 79
     5
170
     0
171
     0
290
     0
174
     0
 93
       13
 44
0.0
173
     0
291
     1
 45
0.0
1001
ACAD
1000
AcDbSavedByObjectVersion
1070
     0
  0
VISUALSTYLE
  5
2C
102
{ACAD_REACTORS
330
2A
102
}
330
2A
100
AcDbVisualStyle
  2
FlatWithEdges
 70
     1
 71
     2
 72
     1
 73
     1
 90
        2
 40
-0.6
 41
30.0
 62
     5
 63
     7
421
 16777215
 74
     1
 91
        4
 64
     7
 65
   257
 75
     1
175
     1
 42
1.0
 92
        0
 66
   257
 43
1.0
 76
     1
 77
     6
 78
     2
 67
     7
 79
     5
170
     0
171
     0
290
     0
174
     0
 93
       13
 44
0.0
173
     0
291
     1
 45
0.0
1001
ACAD
1000
AcDbSavedByObjectVersion
1070
     0
  0
VISUALSTYLE
  5
2D
102
{ACAD_REACTORS
330
2A
102
}
330
2A
100
AcDbVisualStyle
  2
Gouraud
 70
     2
 71
     2
 72
     2
 73
     1
 90
        2
 40
-0.6
 41
30.0
 62
     5
 63
     7
421
 16777215
 74
     0
 91
        4
 64
     7
 65
   257
 75
     1
175
     1
 42
1.0
 92
        0
 66
     7
 43
1.0
 76
     1
 77
     6
 78
     2
 67
     7
 79
     5
170
     0
171
     0
290
     0
174
     0
 93
       13
 44
0.0
173
     0
291
     1
 45
0.0
1001
ACAD
1000
AcDbSavedByObjectVersion
1070
     0
  0
VISUALSTYLE
  5
2E
102
{ACAD_REACTORS
330
2A
102
}
330
2A
100
AcDbVisualStyle
  2
GouraudWithEdges
 70
     3
 71
     2
 72
     2
 73
     1
 90
        2
 40
-0.6
 41
30.0
 62
     5
 63
     7
421
 16777215
 74
     1
 91
        4
 64
     7
 65
   257
 75
     1
175
     1
 42
1.0
 92
        0
 66
   257
 43
1.0
 76
     1
 77
     6
 78
     2
 67
     7
 79
     5
170
     0
171
     0
290
     0
174
     0
 93
       13
 44
0.0
173
     0
291
     1
 45
0.0
1001
ACAD
1000
AcDbSavedByObjectVersion
1070
     0
  0
VISUALSTYLE
  5
38
102
{ACAD_REACTORS
330
2A
102
}
330
2A
100
AcDbVisualStyle
  2
Linepattern
 70
    14
 71
     2
 72
     2
 73
     0
 90
        0
 40
-0.6
 41
-30.0
 62
     5
 63
     7
421
 16777215
 74
     1
 91
        4
 64
     7
 65
   257
 75
     7
175
     7
 42
1.0
 92
        8
 66
     7
 43
1.0
 76
     1
 77
     6
 78
     2
 67
     7
 79
     5
170
     0
171
     0
290
     0
174
     0
 93
        1
 44
0.0
173
     0
291
     1
 45
0.0
1001
ACAD
1000
AcDbSavedByObjectVersion
1070
     0
  0
VISUALSTYLE
  5
33
102
{ACAD_REACTORS
330
2A
102
}
330
2A
100
AcDbVisualStyle
  2
Realistic
 70
     8
 71
     2
 72
     2
 73
     0
 90
        0
 40
-0.6
 41
-30.0
 62
     5
 63
     7
421
 16777215
 74
     1
 91
        0
 64
     7
 65
   257
 75
     1
175
     1
 42
1.0
 92
        8
 66
     8
424
  7895160
 43
1.0
 76
     1
 77
     6
 78
     2
 67
     7
 79
     5
170
     0
171
     0
290
     0
174
     0
 93
       13
 44
0.0
173
     0
291
     0
 45
0.0
1001
ACAD
1000
AcDbSavedByObjectVersion
1070
     0
  0
VISUALSTYLE
  5
37
102
{ACAD_REACTORS
330
2A
102
}
330
2A
100
AcDbVisualStyle
  2
Thicken
 70
    13
 71
     2
 72
     2
 73
     0
 90
        0
 40
-0.6
 41
-30.0
 62
     5
 63
     7
421
 16777215
 74
     1
 91
        4
 64
     7
 65
   257
 75
     1
175
     1
 42
1.0
 92
       12
 66
     7
 43
1.0
 76
     1
 77
     6
 78
     2
 67
     7
 79
     5
170
     0
171
     0
290
     0
174
     0
 93
        1
 44
0.0
173
     0
291
     1
 45
0.0
1001
ACAD
1000
AcDbSavedByObjectVersion
1070
     0
  0
ENDSEC
  0
EOF
