  0
SECTION
  2
HEADER
  9
$ACADVER
  1
AC1018
  9
$ACADMAINTVER
 70
     0
  9
$DWGCODEPAGE
  3
ANSI_1252
  9
$INSBASE
 10
0.0
 20
0.0
 30
0.0
  9
$EXTMIN
 10
-550.0
 20
-550.0
 30
0.0
  9
$EXTMAX
 10
3509.502324986271
 20
1848.033841070079
 30
0.0
  9
$LIMMIN
 10
0.0
 20
0.0
  9
$LIMMAX
 10
12.0
 20
9.0
  9
$ORTHOMODE
 70
     0
  9
$REGENMODE
 70
     1
  9
$FILLMODE
 70
     1
  9
$QTEXTMODE
 70
     0
  9
$MIRRTEXT
 70
     1
  9
$LTSCALE
 40
1.0
  9
$ATTMODE
 70
     1
  9
$TEXTSIZE
 40
0.2
  9
$TRACEWID
 40
0.05
  9
$TEXTSTYLE
  7
Standard
  9
$CLAYER
  8
Table_Miura_9556-01_2D
  9
$CELTYPE
  6
ByLayer
  9
$CECOLOR
 62
   256
  9
$CELTSCALE
 40
1.0
  9
$DISPSILH
 70
     0
  9
$DIMSCALE
 40
1.0
  9
$DIMASZ
 40
0.18
  9
$DIMEXO
 40
0.0625
  9
$DIMDLI
 40
0.38
  9
$DIMRND
 40
0.0
  9
$DIMDLE
 40
0.0
  9
$DIMEXE
 40
0.18
  9
$DIMTP
 40
0.0
  9
$DIMTM
 40
0.0
  9
$DIMTXT
 40
0.18
  9
$DIMCEN
 40
0.09
  9
$DIMTSZ
 40
0.0
  9
$DIMTOL
 70
     0
  9
$DIMLIM
 70
     0
  9
$DIMTIH
 70
     1
  9
$DIMTOH
 70
     1
  9
$DIMSE1
 70
     0
  9
$DIMSE2
 70
     0
  9
$DIMTAD
 70
     0
  9
$DIMZIN
 70
     0
  9
$DIMBLK
  1

  9
$DIMASO
 70
     1
  9
$DIMSHO
 70
     1
  9
$DIMPOST
  1

  9
$DIMAPOST
  1

  9
$DIMALT
 70
     0
  9
$DIMALTD
 70
     2
  9
$DIMALTF
 40
25.4
  9
$DIMLFAC
 40
1.0
  9
$DIMTOFL
 70
     0
  9
$DIMTVP
 40
0.0
  9
$DIMTIX
 70
     0
  9
$DIMSOXD
 70
     0
  9
$DIMSAH
 70
     0
  9
$DIMBLK1
  1

  9
$DIMBLK2
  1

  9
$DIMSTYLE
  2
Standard
  9
$DIMCLRD
 70
     0
  9
$DIMCLRE
 70
     0
  9
$DIMCLRT
 70
     0
  9
$DIMTFAC
 40
1.0
  9
$DIMGAP
 40
0.09
  9
$DIMJUST
 70
     0
  9
$DIMSD1
 70
     0
  9
$DIMSD2
 70
     0
  9
$DIMTOLJ
 70
     1
  9
$DIMTZIN
 70
     0
  9
$DIMALTZ
 70
     0
  9
$DIMALTTZ
 70
     0
  9
$DIMUPT
 70
     0
  9
$DIMDEC
 70
     4
  9
$DIMTDEC
 70
     4
  9
$DIMALTU
 70
     2
  9
$DIMALTTD
 70
     2
  9
$DIMTXSTY
  7
Standard
  9
$DIMAUNIT
 70
     0
  9
$DIMADEC
 70
     0
  9
$DIMALTRND
 40
0.0
  9
$DIMAZIN
 70
     0
  9
$DIMDSEP
 70
    46
  9
$DIMATFIT
 70
     3
  9
$DIMFRAC
 70
     0
  9
$DIMLDRBLK
  1

  9
$DIMLUNIT
 70
     2
  9
$DIMLWD
 70
    -2
  9
$DIMLWE
 70
    -2
  9
$DIMTMOVE
 70
     2
  9
$LUNITS
 70
     2
  9
$LUPREC
 70
     3
  9
$SKETCHINC
 40
0.1
  9
$FILLETRAD
 40
0.5
  9
$AUNITS
 70
     0
  9
$AUPREC
 70
     0
  9
$MENU
  1
.
  9
$ELEVATION
 40
0.0
  9
$PELEVATION
 40
0.0
  9
$THICKNESS
 40
0.0
  9
$LIMCHECK
 70
     0
  9
$CHAMFERA
 40
0.5
  9
$CHAMFERB
 40
0.5
  9
$CHAMFERC
 40
1.0
  9
$CHAMFERD
 40
0.0
  9
$SKPOLY
 70
     0
  9
$TDCREATE
 40
2457213.724650718
  9
$TDUCREATE
 40
2457213.641317384
  9
$TDUPDATE
 40
2457213.724650729
  9
$TDUUPDATE
 40
2457213.641317396
  9
$TDINDWG
 40
0.0000000116
  9
$TDUSRTIMER
 40
0.0000000116
  9
$USRTIMER
 70
     1
  9
$ANGBASE
 50
0.0
  9
$ANGDIR
 70
     0
  9
$PDMODE
 70
     0
  9
$PDSIZE
 40
0.0
  9
$PLINEWID
 40
0.0
  9
$SPLFRAME
 70
     0
  9
$SPLINETYPE
 70
     6
  9
$SPLINESEGS
 70
     8
  9
$HANDSEED
  5
16F
  9
$SURFTAB1
 70
     6
  9
$SURFTAB2
 70
     6
  9
$SURFTYPE
 70
     6
  9
$SURFU
 70
     6
  9
$SURFV
 70
     6
  9
$UCSBASE
  2

  9
$UCSNAME
  2

  9
$UCSORG
 10
0.0
 20
0.0
 30
0.0
  9
$UCSXDIR
 10
1.0
 20
0.0
 30
0.0
  9
$UCSYDIR
 10
0.0
 20
1.0
 30
0.0
  9
$UCSORTHOREF
  2

  9
$UCSORTHOVIEW
 70
     0
  9
$UCSORGTOP
 10
0.0
 20
0.0
 30
0.0
  9
$UCSORGBOTTOM
 10
0.0
 20
0.0
 30
0.0
  9
$UCSORGLEFT
 10
0.0
 20
0.0
 30
0.0
  9
$UCSORGRIGHT
 10
0.0
 20
0.0
 30
0.0
  9
$UCSORGFRONT
 10
0.0
 20
0.0
 30
0.0
  9
$UCSORGBACK
 10
0.0
 20
0.0
 30
0.0
  9
$PUCSBASE
  2

  9
$PUCSNAME
  2

  9
$PUCSORG
 10
0.0
 20
0.0
 30
0.0
  9
$PUCSXDIR
 10
1.0
 20
0.0
 30
0.0
  9
$PUCSYDIR
 10
0.0
 20
1.0
 30
0.0
  9
$PUCSORTHOREF
  2

  9
$PUCSORTHOVIEW
 70
     0
  9
$PUCSORGTOP
 10
0.0
 20
0.0
 30
0.0
  9
$PUCSORGBOTTOM
 10
0.0
 20
0.0
 30
0.0
  9
$PUCSORGLEFT
 10
0.0
 20
0.0
 30
0.0
  9
$PUCSORGRIGHT
 10
0.0
 20
0.0
 30
0.0
  9
$PUCSORGFRONT
 10
0.0
 20
0.0
 30
0.0
  9
$PUCSORGBACK
 10
0.0
 20
0.0
 30
0.0
  9
$USERI1
 70
     0
  9
$USERI2
 70
     0
  9
$USERI3
 70
     0
  9
$USERI4
 70
     0
  9
$USERI5
 70
     0
  9
$USERR1
 40
0.0
  9
$USERR2
 40
0.0
  9
$USERR3
 40
0.0
  9
$USERR4
 40
0.0
  9
$USERR5
 40
0.0
  9
$WORLDVIEW
 70
     1
  9
$SHADEDGE
 70
     3
  9
$SHADEDIF
 70
    70
  9
$TILEMODE
 70
     1
  9
$MAXACTVP
 70
    64
  9
$PINSBASE
 10
0.0
 20
0.0
 30
0.0
  9
$PLIMCHECK
 70
     0
  9
$PEXTMIN
 10
1.000000000000000E+20
 20
1.000000000000000E+20
 30
1.000000000000000E+20
  9
$PEXTMAX
 10
-1.000000000000000E+20
 20
-1.000000000000000E+20
 30
-1.000000000000000E+20
  9
$PLIMMIN
 10
0.0
 20
0.0
  9
$PLIMMAX
 10
12.0
 20
9.0
  9
$UNITMODE
 70
     0
  9
$VISRETAIN
 70
     1
  9
$PLINEGEN
 70
     0
  9
$PSLTSCALE
 70
     1
  9
$TREEDEPTH
 70
  3020
  9
$CMLSTYLE
  2
Standard
  9
$CMLJUST
 70
     0
  9
$CMLSCALE
 40
1.0
  9
$PROXYGRAPHICS
 70
     1
  9
$MEASUREMENT
 70
     0
  9
$CELWEIGHT
370
    -1
  9
$ENDCAPS
280
     0
  9
$JOINSTYLE
280
     0
  9
$LWDISPLAY
290
     0
  9
$INSUNITS
 70
     4
  9
$HYPERLINKBASE
  1

  9
$STYLESHEET
  1

  9
$XEDIT
290
     1
  9
$CEPSNTYPE
380
     0
  9
$PSTYLEMODE
290
     1
  9
$FINGERPRINTGUID
  2
{0BAE07B1-C7F2-431F-972D-F0E44C33472C}
  9
$VERSIONGUID
  2
{FAEB1C32-E019-11D5-929B-00C0DF256EC4}
  9
$EXTNAMES
290
     1
  9
$PSVPSCALE
 40
0.0
  9
$OLESTARTUP
290
     0
  9
$SORTENTS
280
   127
  9
$INDEXCTL
280
     0
  9
$HIDETEXT
280
     1
  9
$XCLIPFRAME
290
     0
  9
$HALOGAP
280
     0
  9
$OBSCOLOR
 70
   257
  9
$OBSLTYPE
280
     0
  9
$INTERSECTIONDISPLAY
280
     0
  9
$INTERSECTIONCOLOR
 70
   257
  9
$DIMASSOC
280
     2
  9
$PROJECTNAME
  1

  0
ENDSEC
  0
SECTION
  2
CLASSES
  0
CLASS
  1
ACDBDICTIONARYWDFLT
  2
AcDbDictionaryWithDefault
  3
ObjectDBX Classes
 90
        0
 91
        4
280
     0
281
     0
  0
CLASS
  1
VISUALSTYLE
  2
AcDbVisualStyle
  3
ObjectDBX Classes
 90
     4095
 91
        4
280
     0
281
     0
  0
ENDSEC
  0
SECTION
  2
TABLES
  0
TABLE
  2
VPORT
  5
8
330
0
100
AcDbSymbolTable
 70
     1
  0
VPORT
  5
29
330
8
100
AcDbSymbolTableRecord
100
AcDbViewportTableRecord
  2
*Active
 70
     0
 10
0.0
 20
0.0
 11
1.0
 21
1.0
 12
1479.751162493135
 22
649.0169205350396
 13
0.0
 23
0.0
 14
0.5
 24
0.5
 15
0.5
 25
0.5
 16
0.0
 26
0.0
 36
1.0
 17
0.0
 27
0.0
 37
0.0
 40
2445.994517891481
 41
1.692846137306716
 42
50.0
 43
0.0
 44
0.0
 50
0.0
 51
0.0
 71
     0
 72
   100
 73
     1
 74
     3
 75
     0
 76
     0
 77
     0
 78
     0
281
     0
 65
     1
110
0.0
120
0.0
130
0.0
111
1.0
121
0.0
131
0.0
112
0.0
122
1.0
132
0.0
 79
     0
146
0.0
  0
ENDTAB
  0
TABLE
  2
LTYPE
  5
5
330
0
100
AcDbSymbolTable
 70
     1
  0
LTYPE
  5
14
330
5
100
AcDbSymbolTableRecord
100
AcDbLinetypeTableRecord
  2
ByBlock
 70
     0
  3

 72
    65
 73
     0
 40
0.0
  0
LTYPE
  5
15
330
5
100
AcDbSymbolTableRecord
100
AcDbLinetypeTableRecord
  2
ByLayer
 70
     0
  3

 72
    65
 73
     0
 40
0.0
  0
LTYPE
  5
16
330
5
100
AcDbSymbolTableRecord
100
AcDbLinetypeTableRecord
  2
Continuous
 70
     0
  3
Solid line
 72
    65
 73
     0
 40
0.0
  0
ENDTAB
  0
TABLE
  2
LAYER
  5
2
330
0
100
AcDbSymbolTable
 70
     2
  0
LAYER
  5
10
330
2
100
AcDbSymbolTableRecord
100
AcDbLayerTableRecord
  2
0
 70
     0
 62
     7
  6
Continuous
370
    -3
390
F
  0
LAYER
  5
3B
330
2
100
AcDbSymbolTableRecord
100
AcDbLayerTableRecord
  2
Table_Miura_9556-01_2D
 70
     0
 62
     7
  6
Continuous
370
    -3
390
F
  0
ENDTAB
  0
TABLE
  2
STYLE
  5
3
330
0
100
AcDbSymbolTable
 70
     1
  0
STYLE
  5
11
330
3
100
AcDbSymbolTableRecord
100
AcDbTextStyleTableRecord
  2
Standard
 70
     0
 40
0.0
 41
1.0
 50
0.0
 71
     0
 42
0.2
  3
txt
  4

  0
ENDTAB
  0
TABLE
  2
VIEW
  5
6
330
0
100
AcDbSymbolTable
 70
     0
  0
ENDTAB
  0
TABLE
  2
UCS
  5
7
330
0
100
AcDbSymbolTable
 70
     0
  0
ENDTAB
  0
TABLE
  2
APPID
  5
9
330
0
100
AcDbSymbolTable
 70
     1
  0
APPID
  5
12
330
9
100
AcDbSymbolTableRecord
100
AcDbRegAppTableRecord
  2
ACAD
 70
     0
  0
ENDTAB
  0
TABLE
  2
DIMSTYLE
  5
A
330
0
100
AcDbSymbolTable
 70
     1
100
AcDbDimStyleTable
  0
DIMSTYLE
105
27
330
A
100
AcDbSymbolTableRecord
100
AcDbDimStyleTableRecord
  2
Standard
 70
     0
340
11
  0
ENDTAB
  0
TABLE
  2
BLOCK_RECORD
  5
1
330
0
100
AcDbSymbolTable
 70
     1
  0
BLOCK_RECORD
  5
1F
330
1
100
AcDbSymbolTableRecord
100
AcDbBlockTableRecord
  2
*Model_Space
340
22
  0
BLOCK_RECORD
  5
1B
330
1
100
AcDbSymbolTableRecord
100
AcDbBlockTableRecord
  2
*Paper_Space
340
1E
  0
BLOCK_RECORD
  5
23
330
1
100
AcDbSymbolTableRecord
100
AcDbBlockTableRecord
  2
*Paper_Space0
340
26
  0
ENDTAB
  0
ENDSEC
  0
SECTION
  2
BLOCKS
  0
BLOCK
  5
20
330
1F
100
AcDbEntity
  8
0
100
AcDbBlockBegin
  2
*Model_Space
 70
     0
 10
0.0
 20
0.0
 30
0.0
  3
*Model_Space
  1

  0
ENDBLK
  5
21
330
1F
100
AcDbEntity
  8
0
100
AcDbBlockEnd
  0
BLOCK
  5
1C
330
1B
100
AcDbEntity
 67
     1
  8
0
100
AcDbBlockBegin
  2
*Paper_Space
 70
     0
 10
0.0
 20
0.0
 30
0.0
  3
*Paper_Space
  1

  0
ENDBLK
  5
1D
330
1B
100
AcDbEntity
 67
     1
  8
0
100
AcDbBlockEnd
  0
BLOCK
  5
24
330
23
100
AcDbEntity
  8
0
100
AcDbBlockBegin
  2
*Paper_Space0
 70
     0
 10
0.0
 20
0.0
 30
0.0
  3
*Paper_Space0
  1

  0
ENDBLK
  5
25
330
23
100
AcDbEntity
  8
0
100
AcDbBlockEnd
  0
ENDSEC
  0
SECTION
  2
ENTITIES
  0
LINE
  5
3C
330
1F
100
AcDbEntity
  8
Table_Miura_9556-01_2D
100
AcDbLine
 10
-24.99942602276951
 20
1587.006747971938
 30
0.0
 11
-24.99942602276951
 21
1806.033841064592
 31
0.0
  0
LINE
  5
3D
330
1F
100
AcDbEntity
  8
Table_Miura_9556-01_2D
100
AcDbLine
 10
25.00032668345648
 20
1806.03384106459
 30
0.0
 11
25.00032668345648
 21
1587.000494877704
 31
0.0
  0
LINE
  5
3E
330
1F
100
AcDbEntity
  8
Table_Miura_9556-01_2D
100
AcDbLine
 10
1454.751619261206
 20
1806.033841010091
 30
0.0
 11
1454.751772262238
 21
1588.656470114396
 31
0.0
  0
SPLINE
  5
3F
330
1F
100
AcDbEntity
  8
Table_Miura_9556-01_2D
100
AcDbSpline
210
0.0
220
0.0
230
1.0
 70
    12
 71
     3
 72
    54
 73
    50
 74
     0
 42
0.0000000001
 43
0.0000000001
 40
-36.3735092767428
 40
-36.3735092767428
 40
-36.3735092767428
 40
-36.3735092767428
 40
-35.65104266691848
 40
-35.51144398999158
 40
-35.26611209216914
 40
-35.10822082106448
 40
-35.01354362312178
 40
-34.93913335904487
 40
-34.75994055350136
 40
-34.55514104781032
 40
-34.31738447665442
 40
-34.04971475097287
 40
-33.65792912305069
 40
-33.23516828083971
 40
-32.29041859629451
 40
-31.25837170456729
 40
-30.19949178401347
 40
-30.19949178401347
 40
-30.19949178401347
 40
-29.4960952416352
 40
-29.4960952416352
 40
-28.79304492415562
 40
-28.79304492415562
 40
-28.79304492415562
 40
-20.11557317593713
 40
-20.11557317593713
 40
-20.11557317593713
 40
-8.53272600516803
 40
-8.53272600516803
 40
-8.53272600516803
 40
-8.268823246790324
 40
-8.268823246790324
 40
-8.268823246790324
 40
-7.121775403209211
 40
-7.121775403209211
 40
-7.121775403209211
 40
-5.332336009370444
 40
-3.594248314605104
 40
-2.749108168344543
 40
-1.884922955709098
 40
-1.047676823306014
 40
-0.6247475337379003
 40
-0.1840573543565883
 40
-0.1840573543565883
 40
-0.1840573543565883
 40
-0.0163079898344346
 40
-0.0163079898344346
 40
-0.0163079898344346
 40
0.0
 40
0.0
 40
0.0
 40
0.0
 10
1454.751772262238
 20
1588.656470114396
 30
0.0
 41
0.999999524845157
 10
1454.99280632608
 20
1588.656475756048
 30
0.0
 41
0.999999524845157
 10
1455.280161416615
 20
1588.656459480672
 30
0.0
 41
0.999999524845157
 10
1455.649282728131
 20
1588.65657914171
 30
0.0
 41
0.999999524845157
 10
1455.830288646965
 20
1588.655802174985
 30
0.0
 41
0.999999524845157
 10
1455.996115718161
 20
1588.657718374302
 30
0.0
 41
0.999999524845157
 10
1456.105352037999
 20
1588.654910462461
 30
0.0
 41
0.999999524845157
 10
1456.21937277625
 20
1588.631527980214
 30
0.0
 41
0.999999524845157
 10
1456.361982857053
 20
1588.574116609807
 30
0.0
 41
0.999999524845157
 10
1456.535777102464
 20
1588.459788617061
 30
0.0
 41
0.999999524845157
 10
1456.712131911047
 20
1588.30109934406
 30
0.0
 41
0.999999524845157
 10
1456.909046051549
 20
1588.075351912032
 30
0.0
 41
0.999999524845157
 10
1457.114468818145
 20
1587.778213725071
 30
0.0
 41
0.999999524845157
 10
1457.397633775881
 20
1587.263765071583
 30
0.0
 41
0.999999524845157
 10
1457.693611759089
 20
1586.518514638575
 30
0.0
 41
0.999999524845157
 10
1457.943106400919
 20
1585.535957738624
 30
0.0
 41
0.999999524845157
 10
1458.037223169886
 20
1584.844366682132
 30
0.0
 41
0.999999524845157
 10
1458.06619369132
 20
1584.492579753593
 30
0.0
 41
0.999999524845157
 10
1458.085533466985
 20
1584.258706293174
 30
0.0
 41
0.999999524845157
 10
1458.145288919349
 20
1584.046710172384
 30
0.0
 41
0.999999524845157
 10
1458.329663881778
 20
1583.740182793432
 30
0.0
 41
0.999999524845157
 10
1458.448096536564
 20
1583.65646476113
 30
0.0
 41
0.999999524845157
 10
1458.574026831769
 20
1583.656470108233
 30
0.0
 41
0.999999524845157
 10
1461.46651741451
 20
1583.656470126194
 30
0.0
 41
0.999999524845157
 10
1464.359007997249
 20
1583.656470131528
 30
0.0
 41
0.999999524845157
 10
1467.251498579988
 20
1583.656470124233
 30
0.0
 41
0.999999524845157
 10
1471.11244763691
 20
1583.656470109554
 30
0.0
 41
0.999999524845157
 10
1474.973396693834
 20
1583.656470094874
 30
0.0
 41
0.999999524845157
 10
1478.834345750756
 20
1583.656470080193
 30
0.0
 41
0.999999524845157
 10
1478.922567770354
 20
1583.656454448242
 30
0.0
 41
0.9942088042594844
 10
1479.009980734066
 20
1583.668207628257
 30
0.0
 41
0.9942086996797163
 10
1479.095066115722
 20
1583.691525449313
 30
0.0
 41
0.9999992111058522
 10
1479.485483195738
 20
1583.798929801638
 30
0.0
 41
0.8933366331508513
 10
1479.755349603159
 20
1584.100951862719
 30
0.0
 41
0.8933368961155672
 10
1479.818311280033
 20
1584.500947885856
 30
0.0
 41
1.0
 10
1479.911193390646
 20
1585.089966031524
 30
0.0
 41
1.0
 10
1480.287996450833
 20
1586.222272251651
 30
0.0
 41
1.0
 10
1481.209143541639
 20
1587.382009945984
 30
0.0
 41
1.0
 10
1482.146552131089
 20
1588.055828825076
 30
0.0
 41
1.0
 10
1482.918908377726
 20
1588.416605356822
 30
0.0
 41
1.0
 10
1483.608149162659
 20
1588.592090946452
 30
0.0
 41
1.0
 10
1484.172248912981
 20
1588.655037176943
 30
0.0
 41
1.0
 10
1484.460444190919
 20
1588.657480278034
 30
0.0
 41
1.0
 10
1484.607289136844
 20
1588.657007201806
 30
0.0
 41
1.0
 10
1484.663205590648
 20
1588.657007862427
 30
0.0
 41
0.999999999998273
 10
1484.71912205192
 20
1588.656969745525
 30
0.0
 41
0.999999999998273
 10
1484.775038520663
 20
1588.656892851097
 30
0.0
 41
1.0
 10
1484.780474526028
 20
1588.656805406749
 30
0.0
 41
0.9999999998057724
 10
1484.76991597146
 20
1588.656543359576
 30
0.0
 41
0.9999999998057724
 10
1484.775351857066
 20
1588.65657809921
 30
0.0
 41
1.0
  0
SPLINE
  5
40
330
1F
100
AcDbEntity
  8
Table_Miura_9556-01_2D
100
AcDbSpline
210
0.0
220
0.0
230
1.0
 70
    12
 71
     2
 72
     6
 73
     3
 74
     0
 42
0.0000000001
 43
0.0000000001
 40
0.0
 40
0.0
 40
0.0
 40
0.0159951658560524
 40
0.0159951658560524
 40
0.0159951658560524
 10
1484.775351857066
 20
1588.65657809921
 30
0.0
 41
1.0
 10
1484.78334927708
 20
1588.656629209087
 30
0.0
 41
0.999999924943241
 10
1484.791346734297
 20
1588.656674121833
 30
0.0
 41
1.0
  0
SPLINE
  5
41
330
1F
100
AcDbEntity
  8
Table_Miura_9556-01_2D
100
AcDbSpline
210
0.0
220
0.0
230
1.0
 70
    12
 71
     2
 72
     6
 73
     3
 74
     0
 42
0.0000000001
 43
0.0000000001
 40
0.0
 40
0.0
 40
0.0
 40
7.460028192515836
 40
7.460028192515836
 40
7.460028192515836
 10
1484.791346734297
 20
1588.656674121833
 30
0.0
 41
1.0
 10
1488.521360821995
 20
1588.656374141539
 30
0.0
 41
0.9999999985914357
 10
1492.251374920521
 20
1588.656470114397
 30
0.0
 41
1.0
  0
SPLINE
  5
42
330
1F
100
AcDbEntity
  8
Table_Miura_9556-01_2D
100
AcDbSpline
210
0.0
220
0.0
230
1.0
 70
    12
 71
     2
 72
     6
 73
     3
 74
     0
 42
0.0000000001
 43
0.0000000001
 40
-5.848452852216105
 40
-5.848452852216105
 40
-5.848452852216105
 40
0.0
 40
0.0
 40
0.0
 10
1492.251374920521
 20
1588.656470114397
 30
0.0
 41
1.0
 10
1495.175601347056
 20
1588.656512773287
 30
0.0
 41
0.9999999996213539
 10
1498.09982777151
 20
1588.656394488941
 30
0.0
 41
1.0
  0
SPLINE
  5
43
330
1F
100
AcDbEntity
  8
Table_Miura_9556-01_2D
100
AcDbSpline
210
0.0
220
0.0
230
1.0
 70
     8
 71
     3
 72
    15
 73
    11
 74
     0
 42
0.0000000001
 43
0.0000000001
 40
-5.517215510995963
 40
-5.517215510995963
 40
-5.517215510995963
 40
-5.517215510995963
 40
-4.92773864084709
 40
-4.318670834827659
 40
-3.704388331691281
 40
-3.058194976662103
 40
-2.377907408399817
 40
-1.641856638493278
 40
-0.8506135065108558
 40
0.0
 40
0.0
 40
0.0
 40
0.0
 10
1498.09982777151
 20
1588.656394488941
 30
0.0
 10
1498.294683542453
 20
1588.63106464615
 30
0.0
 10
1498.685741312005
 20
1588.540140395666
 30
0.0
 10
1499.23756664842
 20
1588.286090365006
 30
0.0
 10
1499.743123589189
 20
1587.916904642937
 30
0.0
 10
1500.188871202927
 20
1587.444614779861
 30
0.0
 10
1500.57361043011
 20
1586.872430088974
 30
0.0
 10
1500.893594140635
 20
1586.207974844823
 30
0.0
 10
1501.148367491929
 20
1585.456105528082
 30
0.0
 10
1501.270181048433
 20
1584.913746966404
 30
0.0
 10
1501.320146993658
 20
1584.634666851875
 30
0.0
  0
SPLINE
  5
44
330
1F
100
AcDbEntity
  8
Table_Miura_9556-01_2D
100
AcDbSpline
210
0.0
220
0.0
230
1.0
 70
    12
 71
     2
 72
     6
 73
     3
 74
     0
 42
0.0000000001
 43
0.0000000001
 40
-0.3761526883931789
 40
-0.3761526883931789
 40
-0.3761526883931789
 40
0.0
 40
0.0
 40
0.0
 10
1501.320146993658
 20
1584.634666851875
 30
0.0
 41
1.0
 10
1501.353292782858
 20
1584.449534145893
 30
0.0
 41
0.9999989203661542
 10
1501.386982512725
 20
1584.264499651089
 30
0.0
 41
1.0
  0
SPLINE
  5
45
330
1F
100
AcDbEntity
  8
Table_Miura_9556-01_2D
100
AcDbSpline
210
0.0
220
0.0
230
1.0
 70
     8
 71
     3
 72
    11
 73
     7
 74
     0
 42
0.0000000001
 43
0.0000000001
 40
0.0081002585430663
 40
0.0081002585430663
 40
0.0081002585430663
 40
0.0081002585430663
 40
0.76990063300263
 40
0.76990063300263
 40
0.76990063300263
 40
3.675276053828606
 40
3.675276053828606
 40
3.675276053828606
 40
3.675276053828606
 10
1501.386982512725
 20
1584.264499651089
 30
0.0
 10
1501.432503960034
 20
1584.014481677101
 30
0.0
 10
1501.592050311006
 20
1583.656470079148
 30
0.0
 10
1501.8459376864
 20
1583.656470080193
 30
0.0
 10
1502.81439616001
 20
1583.656470084183
 30
0.0
 10
1503.782854633618
 20
1583.656470088173
 30
0.0
 10
1504.751313107226
 20
1583.656470098147
 30
0.0
  0
LINE
  5
46
330
1F
100
AcDbEntity
  8
Table_Miura_9556-01_2D
100
AcDbLine
 10
1504.751313107226
 20
1583.656470098147
 30
0.0
 11
1504.751313108992
 21
1806.033841010091
 31
0.0
  0
LINE
  5
47
330
1F
100
AcDbEntity
  8
Table_Miura_9556-01_2D
100
AcDbLine
 10
2984.501751320815
 20
1806.033841058442
 30
0.0
 11
2984.501751320815
 21
1584.255806519658
 31
0.0
  0
ARC
  5
48
330
1F
100
AcDbEntity
  8
Table_Miura_9556-01_2D
100
AcDbCircle
 10
2974.488204694463
 20
1584.255806519658
 30
0.0
 40
10.01354662635185
100
AcDbArc
 50
356.5686501530192
 51
0.0
  0
SPLINE
  5
49
330
1F
100
AcDbEntity
  8
Table_Miura_9556-01_2D
100
AcDbSpline
210
0.0
220
0.0
230
1.0
 70
    12
 71
     2
 72
     6
 73
     3
 74
     0
 42
0.0000000001
 43
0.0000000001
 40
0.0
 40
0.0
 40
0.0
 40
3.332521385645805
 40
3.332521385645805
 40
3.332521385645805
 10
2984.483799320192
 20
1583.656470123111
 30
0.0
 41
1.0
 10
2982.817538627369
 20
1583.656470177793
 30
0.0
 41
0.9999999999999998
 10
2981.151277934546
 20
1583.656470157508
 30
0.0
 41
1.0
  0
SPLINE
  5
4A
330
1F
100
AcDbEntity
  8
Table_Miura_9556-01_2D
100
AcDbSpline
210
0.0
220
0.0
230
1.0
 70
    24
 71
     2
 72
     6
 73
     3
 74
     0
 42
0.0000000001
 43
0.0000000001
 40
0.0
 40
0.0
 40
0.0
 40
8.348680839593044
 40
8.348680839593044
 40
8.348680839593044
 10
2981.151277934546
 20
1583.656470157508
 30
0.0
 10
2976.976937514749
 20
1583.656470143074
 30
0.0
 10
2972.802597094953
 20
1583.65647012864
 30
0.0
  0
SPLINE
  5
4B
330
1F
100
AcDbEntity
  8
Table_Miura_9556-01_2D
100
AcDbSpline
210
0.0
220
0.0
230
1.0
 70
    24
 71
     2
 72
     6
 73
     3
 74
     0
 42
0.0000000001
 43
0.0000000001
 40
0.0
 40
0.0
 40
0.0
 40
0.0160983755549751
 40
0.0160983755549751
 40
0.0160983755549751
 10
2972.802597094953
 20
1583.65647012864
 30
0.0
 10
2972.794547907175
 20
1583.656470128592
 30
0.0
 10
2972.786498719398
 20
1583.656470128544
 30
0.0
  0
SPLINE
  5
4C
330
1F
100
AcDbEntity
  8
Table_Miura_9556-01_2D
100
AcDbSpline
210
0.0
220
0.0
230
1.0
 70
    12
 71
     3
 72
    10
 73
     6
 74
     0
 42
0.0000000001
 43
0.0000000001
 40
0.0049548717152337
 40
0.0049548717152337
 40
0.0049548717152337
 40
0.0049548717152337
 40
0.7080051891948135
 40
0.7080051891948135
 40
1.41140173157308
 40
1.41140173157308
 40
1.41140173157308
 40
1.41140173157308
 10
2972.786498719398
 20
1583.656470128544
 30
0.0
 41
1.0
 10
2972.585782942638
 20
1583.656464809481
 30
0.0
 41
1.0
 10
2972.390112978413
 20
1583.740182841783
 30
0.0
 41
1.0
 10
2972.07867369074
 20
1584.046710220735
 30
0.0
 41
1.0
 10
2971.974248759865
 20
1584.258706341525
 30
0.0
 41
1.0
 10
2971.940555060111
 20
1584.492579801944
 30
0.0
 41
1.0
  0
SPLINE
  5
4D
330
1F
100
AcDbEntity
  8
Table_Miura_9556-01_2D
100
AcDbSpline
210
0.0
220
0.0
230
1.0
 70
     8
 71
     3
 72
    18
 73
    14
 74
     0
 42
0.0000000001
 43
0.0000000001
 40
0.0
 40
0.0
 40
0.0
 40
0.0
 40
1.377704624405373
 40
2.696713512584107
 40
3.984914730732072
 40
5.250484060508209
 40
5.917725107688561
 40
6.281926508383835
 40
6.60481718544714
 40
6.899780132333365
 40
7.290264732586267
 40
8.184836209513849
 40
14.64921461756716
 40
14.64921461756716
 40
14.64921461756716
 40
14.64921461756716
 10
2971.940555060111
 20
1584.492579801944
 30
0.0
 10
2971.875159837567
 20
1584.947078748948
 30
0.0
 10
2971.64115415463
 20
1585.822134060292
 30
0.0
 10
2970.977904698829
 20
1586.986602278319
 30
0.0
 10
2970.041727696045
 20
1587.895919775139
 30
0.0
 10
2969.073843036779
 20
1588.387887816849
 30
0.0
 10
2968.329899435689
 20
1588.576627368726
 30
0.0
 10
2967.882197910469
 20
1588.638163050577
 30
0.0
 10
2967.555298013645
 20
1588.657527028046
 30
0.0
 10
2967.219105974564
 20
1588.656757310665
 30
0.0
 10
2966.692486568797
 20
1588.656357574979
 30
0.0
 10
2964.109437505595
 20
1588.656624117652
 30
0.0
 10
2961.656579593053
 20
1588.656378697651
 30
0.0
 10
2959.501874967702
 20
1588.656470162742
 30
0.0
  0
SPLINE
  5
4E
330
1F
100
AcDbEntity
  8
Table_Miura_9556-01_2D
100
AcDbSpline
210
0.0
220
0.0
230
1.0
 70
     8
 71
     3
 72
    18
 73
    14
 74
     0
 42
0.0000000001
 43
0.0000000001
 40
-14.64921461756716
 40
-14.64921461756716
 40
-14.64921461756716
 40
-14.64921461756716
 40
-8.184836209513707
 40
-7.290264732586142
 40
-6.899780132333247
 40
-6.604817185447027
 40
-6.281926508383727
 40
-5.91772510768846
 40
-5.25048406050812
 40
-3.984914730732004
 40
-2.69671351258406
 40
-1.37770462440535
 40
0.0
 40
0.0
 40
0.0
 40
0.0
 10
2959.501874967702
 20
1588.656470162742
 30
0.0
 10
2957.347170342351
 20
1588.656378697651
 30
0.0
 10
2954.894312429809
 20
1588.656624117652
 30
0.0
 10
2952.311263366607
 20
1588.656357574979
 30
0.0
 10
2951.78464396084
 20
1588.656757310665
 30
0.0
 10
2951.448451921759
 20
1588.657527028046
 30
0.0
 10
2951.121552024935
 20
1588.638163050577
 30
0.0
 10
2950.673850499715
 20
1588.576627368726
 30
0.0
 10
2949.929906898625
 20
1588.387887816849
 30
0.0
 10
2948.962022239359
 20
1587.895919775139
 30
0.0
 10
2948.025845236575
 20
1586.986602278319
 30
0.0
 10
2947.362595780774
 20
1585.822134060292
 30
0.0
 10
2947.128590097837
 20
1584.947078748948
 30
0.0
 10
2947.063194875293
 20
1584.492579801944
 30
0.0
  0
SPLINE
  5
4F
330
1F
100
AcDbEntity
  8
Table_Miura_9556-01_2D
100
AcDbSpline
210
0.0
220
0.0
230
1.0
 70
    12
 71
     3
 72
    10
 73
     6
 74
     0
 42
0.0000000001
 43
0.0000000001
 40
-1.41140173157308
 40
-1.41140173157308
 40
-1.41140173157308
 40
-1.41140173157308
 40
-0.7080051891948135
 40
-0.7080051891948135
 40
-0.0049548717152337
 40
-0.0049548717152337
 40
-0.0049548717152337
 40
-0.0049548717152337
 10
2947.063194875293
 20
1584.492579801944
 30
0.0
 41
1.0
 10
2947.029501175539
 20
1584.258706341525
 30
0.0
 41
1.0
 10
2946.925076244664
 20
1584.046710220735
 30
0.0
 41
1.0
 10
2946.613636956991
 20
1583.740182841783
 30
0.0
 41
1.0
 10
2946.417966992766
 20
1583.656464809481
 30
0.0
 41
1.0
 10
2946.217251216006
 20
1583.656470128544
 30
0.0
 41
1.0
  0
SPLINE
  5
50
330
1F
100
AcDbEntity
  8
Table_Miura_9556-01_2D
100
AcDbSpline
210
0.0
220
0.0
230
1.0
 70
    24
 71
     2
 72
     6
 73
     3
 74
     0
 42
0.0000000001
 43
0.0000000001
 40
-0.0160983755549751
 40
-0.0160983755549751
 40
-0.0160983755549751
 40
0.0
 40
0.0
 40
0.0
 10
2946.217251216006
 20
1583.656470128544
 30
0.0
 10
2946.209202028228
 20
1583.656470128592
 30
0.0
 10
2946.201152840451
 20
1583.65647012864
 30
0.0
  0
SPLINE
  5
51
330
1F
100
AcDbEntity
  8
Table_Miura_9556-01_2D
100
AcDbSpline
210
0.0
220
0.0
230
1.0
 70
    24
 71
     2
 72
     6
 73
     3
 74
     0
 42
0.0000000001
 43
0.0000000001
 40
-8.348680839593044
 40
-8.348680839593044
 40
-8.348680839593044
 40
0.0
 40
0.0
 40
0.0
 10
2946.201152840451
 20
1583.65647012864
 30
0.0
 10
2942.026812420655
 20
1583.656470143074
 30
0.0
 10
2937.852472000858
 20
1583.656470157508
 30
0.0
  0
SPLINE
  5
52
330
1F
100
AcDbEntity
  8
Table_Miura_9556-01_2D
100
AcDbSpline
210
0.0
220
0.0
230
1.0
 70
    12
 71
     2
 72
     6
 73
     3
 74
     0
 42
0.0000000001
 43
0.0000000001
 40
-3.332521385645805
 40
-3.332521385645805
 40
-3.332521385645805
 40
0.0
 40
0.0
 40
0.0
 10
2937.852472000858
 20
1583.656470157508
 30
0.0
 41
1.0
 10
2936.186211308035
 20
1583.656470177793
 30
0.0
 41
0.9999999999999998
 10
2934.519950615212
 20
1583.656470123111
 30
0.0
 41
1.0
  0
ARC
  5
53
330
1F
100
AcDbEntity
  8
Table_Miura_9556-01_2D
100
AcDbCircle
 10
2944.515545240941
 20
1584.255806519658
 30
0.0
 40
10.01354662635185
100
AcDbArc
 50
180.0
 51
183.4313498469807
  0
LINE
  5
54
330
1F
100
AcDbEntity
  8
Table_Miura_9556-01_2D
100
AcDbLine
 10
2934.501998614589
 20
1584.255806519658
 30
0.0
 11
2934.501998614589
 21
1806.033841058442
 31
0.0
  0
SPLINE
  5
55
330
1F
100
AcDbEntity
  8
Table_Miura_9556-01_2D
100
AcDbSpline
210
0.0
220
0.0
230
1.0
 70
    28
 71
     2
 72
     6
 73
     3
 74
     0
 42
0.0000000001
 43
0.0000000001
 40
-0.0016858811199636
 40
-0.0016858811199636
 40
-0.0016858811199636
 40
0.0
 40
0.0
 40
0.0
 10
-137.5019586246008
 20
1830.033841834206
 30
0.0
 41
1.0
 10
-137.5028015646303
 20
1830.033842779763
 30
0.0
 41
1.0
 10
-137.5036445046599
 20
1830.033843725208
 30
0.0
 41
1.0
  0
SPLINE
  5
56
330
1F
100
AcDbEntity
  8
Table_Miura_9556-01_2D
100
AcDbSpline
210
0.0
220
0.0
230
1.0
 70
    12
 71
     2
 72
     6
 73
     3
 74
     0
 42
0.0000000001
 43
0.0000000001
 40
0.0
 40
0.0
 40
0.0
 40
3.923330453739822
 40
3.923330453739822
 40
3.923330453739822
 10
-137.5036445046599
 20
1830.033843725208
 30
0.0
 41
1.0
 10
-139.999991805237
 20
1830.037491099432
 30
0.0
 41
0.7076212603681254
 10
-139.9999890541424
 20
1832.53384106459
 30
0.0
 41
0.9999999999904636
  0
SPLINE
  5
57
330
1F
100
AcDbEntity
  8
Table_Miura_9556-01_2D
100
AcDbSpline
210
0.0
220
0.0
230
1.0
 70
    24
 71
     2
 72
     6
 73
     3
 74
     0
 42
0.0000000001
 43
0.0000000001
 40
0.0
 40
0.0
 40
0.0
 40
3.499999999999773
 40
3.499999999999773
 40
3.499999999999773
 10
-139.9999890541421
 20
1832.53384106459
 30
0.0
 10
-139.9998258691289
 20
1834.28384106459
 30
0.0
 10
-139.9996626841157
 20
1836.033841064589
 30
0.0
  0
SPLINE
  5
58
330
1F
100
AcDbEntity
  8
Table_Miura_9556-01_2D
100
AcDbSpline
210
0.0
220
0.0
230
1.0
 70
    24
 71
     3
 72
     8
 73
     4
 74
     0
 42
0.0000000001
 43
0.0000000001
 40
-279.9993259299167
 40
-279.9993259299167
 40
-279.9993259299167
 40
-279.9993259299167
 40
0.0
 40
0.0
 40
0.0
 40
0.0
 10
-139.9996626841157
 20
1836.033841064589
 30
0.0
 10
-46.66621697483606
 20
1836.033841064589
 30
0.0
 10
46.66689166846936
 20
1836.033841064588
 30
0.0
 10
140.0000003427076
 20
1836.03384106459
 30
0.0
  0
SPLINE
  5
59
330
1F
100
AcDbEntity
  8
Table_Miura_9556-01_2D
100
AcDbSpline
210
0.0
220
0.0
230
1.0
 70
    24
 71
     2
 72
     6
 73
     3
 74
     0
 42
0.0000000001
 43
0.0000000001
 40
0.0
 40
0.0
 40
0.0
 40
3.5
 40
3.5
 40
3.5
 10
140.0000003427076
 20
1836.03384106459
 30
0.0
 10
140.0000003467999
 20
1834.28384106459
 30
0.0
 10
140.0000003508922
 20
1832.53384106459
 30
0.0
  0
SPLINE
  5
5A
330
1F
100
AcDbEntity
  8
Table_Miura_9556-01_2D
100
AcDbSpline
210
0.0
220
0.0
230
1.0
 70
    12
 71
     2
 72
     6
 73
     3
 74
     0
 42
0.0000000001
 43
0.0000000001
 40
0.0
 40
0.0
 40
0.0
 40
3.926978729214439
 40
3.926978729214439
 40
3.926978729214439
 10
140.0000003508922
 20
1832.53384106459
 30
0.0
 41
1.0
 10
139.9999997171599
 20
1830.03385350108
 30
0.0
 41
0.7071086263809615
 10
137.500006233292
 20
1830.033841064604
 30
0.0
 41
1.0
  0
SPLINE
  5
5B
330
1F
100
AcDbEntity
  8
Table_Miura_9556-01_2D
100
AcDbSpline
210
0.0
220
0.0
230
1.0
 70
    24
 71
     3
 72
     9
 73
     5
 74
     0
 42
0.0000000001
 43
0.0000000001
 40
-275.000634640636
 40
-275.000634640636
 40
-275.000634640636
 40
-275.000634640636
 40
-0.0006371167132784
 40
0.0
 40
0.0
 40
0.0
 40
0.0
 10
137.500006233292
 20
1830.033841064604
 30
0.0
 10
45.83335465098753
 20
1830.033841064587
 30
0.0
 10
-45.83358505928572
 20
1830.033841064595
 30
0.0
 10
-137.5003990038122
 20
1830.03384106459
 30
0.0
 10
-137.4993600943062
 20
1830.03384106459
 30
0.0
  0
SPLINE
  5
5C
330
1F
100
AcDbEntity
  8
Table_Miura_9556-01_2D
100
AcDbSpline
210
0.0
220
0.0
230
1.0
 70
    24
 71
     2
 72
     6
 73
     3
 74
     0
 42
0.0000000001
 43
0.0000000001
 40
0.0
 40
0.0
 40
0.0
 40
47.99851635084929
 40
47.99851635084929
 40
47.99851635084929
 10
91.56793484226
 20
1830.033099232061
 30
0.0
 10
70.78396758254121
 20
1818.033470148325
 30
0.0
 10
50.00000032282242
 20
1806.03384106459
 30
0.0
  0
SPLINE
  5
5D
330
1F
100
AcDbEntity
  8
Table_Miura_9556-01_2D
100
AcDbSpline
210
0.0
220
0.0
230
1.0
 70
    24
 71
     3
 72
    10
 73
     6
 74
     0
 42
0.0000000001
 43
0.0000000001
 40
-100.0009354610945
 40
-100.0009354610945
 40
-100.0009354610945
 40
-100.0009354610945
 40
-0.0009354610938317
 40
-0.0007038564751838
 40
0.0
 40
0.0
 40
0.0
 40
0.0
 10
50.00000032282242
 20
1806.03384106459
 30
0.0
 10
16.66669703103616
 20
1806.033841064588
 30
0.0
 10
-16.66680366354649
 20
1806.033841064593
 30
0.0
 10
-50.00035007035603
 20
1806.033841064593
 30
0.0
 10
-49.99868852134932
 20
1806.03384106459
 30
0.0
 10
-49.99953196872502
 20
1806.03384106459
 30
0.0
  0
SPLINE
  5
5E
330
1F
100
AcDbEntity
  8
Table_Miura_9556-01_2D
100
AcDbSpline
210
0.0
220
0.0
230
1.0
 70
    24
 71
     2
 72
     6
 73
     3
 74
     0
 42
0.0000000001
 43
0.0000000001
 40
0.0
 40
0.0
 40
0.0
 40
47.99848741513637
 40
47.99848741513637
 40
47.99848741513637
 10
-49.99953196872502
 20
1806.03384106459
 30
0.0
 10
-70.7837205641863
 20
1818.033462914397
 30
0.0
 10
-91.56790915964757
 20
1830.033084764205
 30
0.0
  0
SPLINE
  5
5F
330
1F
100
AcDbEntity
  8
Table_Miura_9556-01_2D
100
AcDbSpline
210
0.0
220
0.0
230
1.0
 70
    12
 71
     2
 72
     6
 73
     3
 74
     0
 42
0.0000000001
 43
0.0000000001
 40
-0.0017236465548061
 40
-0.0017236465548061
 40
-0.0017236465548061
 40
0.0
 40
0.0
 40
0.0
 10
1617.253297191402
 20
1830.033841705976
 30
0.0
 41
1.0
 10
1617.254159014168
 20
1830.033842645798
 30
0.0
 41
1.0
 10
1617.255020836932
 20
1830.033843585282
 30
0.0
 41
1.0
  0
SPLINE
  5
60
330
1F
100
AcDbEntity
  8
Table_Miura_9556-01_2D
100
AcDbSpline
210
0.0
220
0.0
230
1.0
 70
    12
 71
     2
 72
     6
 73
     3
 74
     0
 42
0.0000000001
 43
0.0000000001
 40
0.0
 40
0.0
 40
0.0
 40
3.923393678308207
 40
3.923393678308207
 40
3.923393678308207
 10
1617.255020836932
 20
1830.033843585282
 30
0.0
 41
1.0
 10
1619.751429903725
 20
1830.037429368018
 30
0.0
 41
0.7076128936508792
 10
1619.751427918395
 20
1832.533841010091
 30
0.0
 41
0.9999999999935767
  0
SPLINE
  5
61
330
1F
100
AcDbEntity
  8
Table_Miura_9556-01_2D
100
AcDbSpline
210
0.0
220
0.0
230
1.0
 70
    24
 71
     2
 72
     6
 73
     3
 74
     0
 42
0.0000000001
 43
0.0000000001
 40
0.0
 40
0.0
 40
0.0
 40
3.5
 40
3.5
 40
3.5
 10
1619.751427918395
 20
1832.533841010091
 30
0.0
 10
1619.751263835415
 20
1834.283841010091
 30
0.0
 10
1619.751099752435
 20
1836.033841010091
 30
0.0
  0
SPLINE
  5
62
330
1F
100
AcDbEntity
  8
Table_Miura_9556-01_2D
100
AcDbSpline
210
0.0
220
0.0
230
1.0
 70
    24
 71
     2
 72
     6
 73
     3
 74
     0
 42
0.0000000001
 43
0.0000000001
 40
-139.9993259299168
 40
-139.9993259299168
 40
-139.9993259299168
 40
0.0
 40
0.0
 40
0.0
 10
1619.751099752435
 20
1836.033841010091
 30
0.0
 10
1549.751268254489
 20
1836.033841010091
 30
0.0
 10
1479.751436756544
 20
1836.033841010091
 30
0.0
  0
SPLINE
  5
63
330
1F
100
AcDbEntity
  8
Table_Miura_9556-01_2D
100
AcDbSpline
210
0.0
220
0.0
230
1.0
 70
    24
 71
     3
 72
     9
 73
     5
 74
     0
 42
0.0000000001
 43
0.0000000001
 40
-140.0006740700831
 40
-140.0006740700831
 40
-140.0006740700831
 40
-140.0006740700831
 40
-0.000588034942917
 40
0.0
 40
0.0
 40
0.0
 40
0.0
 10
1479.751436756544
 20
1836.033841010091
 30
0.0
 10
1433.084857429391
 20
1836.033841010089
 30
0.0
 10
1386.417755057983
 20
1836.033841010091
 30
0.0
 10
1339.751134070413
 20
1836.033841010093
 30
0.0
 10
1339.751773760653
 20
1836.033841010091
 30
0.0
  0
SPLINE
  5
64
330
1F
100
AcDbEntity
  8
Table_Miura_9556-01_2D
100
AcDbSpline
210
0.0
220
0.0
230
1.0
 70
    24
 71
     2
 72
     6
 73
     3
 74
     0
 42
0.0000000001
 43
0.0000000001
 40
0.0
 40
0.0
 40
0.0
 40
3.5
 40
3.5
 40
3.5
 10
1339.751773760653
 20
1836.033841010091
 30
0.0
 10
1339.751590312388
 20
1834.283841010091
 30
0.0
 10
1339.751406864122
 20
1832.533841010091
 30
0.0
  0
SPLINE
  5
65
330
1F
100
AcDbEntity
  8
Table_Miura_9556-01_2D
100
AcDbSpline
210
0.0
220
0.0
230
1.0
 70
    12
 71
     2
 72
     6
 73
     3
 74
     0
 42
0.0000000001
 43
0.0000000001
 40
0.0
 40
0.0
 40
0.0
 40
3.923569074038741
 40
3.923569074038741
 40
3.923569074038741
 10
1339.751406864122
 20
1832.533841010091
 30
0.0
 41
0.9999999999897549
 10
1339.751382213732
 20
1830.037263360015
 30
0.0
 41
0.7075916723679009
 10
1342.247957521266
 20
1830.033843361528
 30
0.0
 41
1.0
  0
SPLINE
  5
66
330
1F
100
AcDbEntity
  8
Table_Miura_9556-01_2D
100
AcDbSpline
210
0.0
220
0.0
230
1.0
 70
    28
 71
     2
 72
     6
 73
     3
 74
     0
 42
0.0000000001
 43
0.0000000001
 40
0.0
 40
0.0
 40
0.0
 40
0.0017079348288815
 40
0.0017079348288815
 40
0.0017079348288815
 10
1342.247957521266
 20
1830.033843361528
 30
0.0
 41
1.0
 10
1342.248811488228
 20
1830.033842482111
 30
0.0
 41
1.0
 10
1342.24966545519
 20
1830.033841602586
 30
0.0
 41
1.0
  0
SPLINE
  5
67
330
1F
100
AcDbEntity
  8
Table_Miura_9556-01_2D
100
AcDbSpline
210
0.0
220
0.0
230
1.0
 70
    24
 71
     3
 72
     9
 73
     5
 74
     0
 42
0.0000000001
 43
0.0000000001
 40
0.0
 40
0.0
 40
0.0
 40
0.0
 40
0.0006373261368182
 40
137.5005588484815
 40
137.5005588484815
 40
137.5005588484815
 40
137.5005588484815
 10
1617.250795402259
 20
1830.033841010091
 30
0.0
 10
1617.251817827929
 20
1830.03384101009
 30
0.0
 10
1571.418416815014
 20
1830.03384101009
 30
0.0
 10
1525.584772174776
 20
1830.033841010091
 30
0.0
 10
1479.75147398128
 20
1830.033841010091
 30
0.0
  0
SPLINE
  5
68
330
1F
100
AcDbEntity
  8
Table_Miura_9556-01_2D
100
AcDbSpline
210
0.0
220
0.0
230
1.0
 70
    24
 71
     2
 72
     6
 73
     3
 74
     0
 42
0.0000000001
 43
0.0000000001
 40
0.0
 40
0.0
 40
0.0
 40
137.4994130277261
 40
137.4994130277261
 40
137.4994130277261
 10
1479.75147398128
 20
1830.033841010091
 30
0.0
 10
1411.001748855032
 20
1830.033841010091
 30
0.0
 10
1342.252023728784
 20
1830.033841010091
 30
0.0
  0
SPLINE
  5
69
330
1F
100
AcDbEntity
  8
Table_Miura_9556-01_2D
100
AcDbSpline
210
0.0
220
0.0
230
1.0
 70
    24
 71
     2
 72
     6
 73
     3
 74
     0
 42
0.0000000001
 43
0.0000000001
 40
-47.99848741513632
 40
-47.99848741513632
 40
-47.99848741513632
 40
0.0
 40
0.0
 40
0.0
 10
1571.319346227967
 20
1830.033084709706
 30
0.0
 10
1550.535157632506
 20
1818.033462859899
 30
0.0
 10
1529.750969037044
 20
1806.033841010091
 30
0.0
  0
SPLINE
  5
6A
330
1F
100
AcDbEntity
  8
Table_Miura_9556-01_2D
100
AcDbSpline
210
0.0
220
0.0
230
1.0
 70
    24
 71
     3
 72
    10
 73
     6
 74
     0
 42
0.0000000001
 43
0.0000000001
 40
0.0
 40
0.0
 40
0.0
 40
0.0
 40
0.0007038564752122
 40
0.0009354610935191
 40
50.0009354610936
 40
50.0009354610936
 40
50.0009354610936
 40
50.0009354610936
 10
1529.750969037044
 20
1806.033841010091
 30
0.0
 10
1529.750140283926
 20
1806.033841010093
 30
0.0
 10
1529.751773957349
 20
1806.033841010091
 30
0.0
 10
1513.084935669527
 20
1806.033841010092
 30
0.0
 10
1496.418052752088
 20
1806.03384101009
 30
0.0
 10
1479.751436756544
 20
1806.033841010091
 30
0.0
  0
SPLINE
  5
6B
330
1F
100
AcDbEntity
  8
Table_Miura_9556-01_2D
100
AcDbSpline
210
0.0
220
0.0
230
1.0
 70
    24
 71
     2
 72
     6
 73
     3
 74
     0
 42
0.0000000001
 43
0.0000000001
 40
0.0
 40
0.0
 40
0.0
 40
49.99906453890648
 40
49.99906453890648
 40
49.99906453890648
 10
1479.751436756544
 20
1806.033841010091
 30
0.0
 10
1454.751670616293
 20
1806.033841010091
 30
0.0
 10
1429.751904476043
 20
1806.033841010091
 30
0.0
  0
SPLINE
  5
6C
330
1F
100
AcDbEntity
  8
Table_Miura_9556-01_2D
100
AcDbSpline
210
0.0
220
0.0
230
1.0
 70
    24
 71
     2
 72
     6
 73
     3
 74
     0
 42
0.0000000001
 43
0.0000000001
 40
-47.9984874151363
 40
-47.9984874151363
 40
-47.9984874151363
 40
0.0
 40
0.0
 40
0.0
 10
1429.751904476043
 20
1806.033841010091
 30
0.0
 10
1408.967715880582
 20
1818.033462859899
 30
0.0
 10
1388.183527285121
 20
1830.033084709706
 30
0.0
  0
SPLINE
  5
6D
330
1F
100
AcDbEntity
  8
Table_Miura_9556-01_2D
100
AcDbSpline
210
0.0
220
0.0
230
1.0
 70
    12
 71
     2
 72
     6
 73
     3
 74
     0
 42
0.0000000001
 43
0.0000000001
 40
-0.0017236465548061
 40
-0.0017236465548061
 40
-0.0017236465548061
 40
0.0
 40
0.0
 40
0.0
 10
3097.004185421129
 20
1830.033841754327
 30
0.0
 41
1.0
 10
3097.005047243895
 20
1830.033842694149
 30
0.0
 41
1.0
 10
3097.005909066659
 20
1830.033843633634
 30
0.0
 41
1.0
  0
SPLINE
  5
6E
330
1F
100
AcDbEntity
  8
Table_Miura_9556-01_2D
100
AcDbSpline
210
0.0
220
0.0
230
1.0
 70
    12
 71
     2
 72
     6
 73
     3
 74
     0
 42
0.0000000001
 43
0.0000000001
 40
0.0
 40
0.0
 40
0.0
 40
3.923393678308207
 40
3.923393678308207
 40
3.923393678308207
 10
3097.005909066659
 20
1830.033843633634
 30
0.0
 41
1.0
 10
3099.502318133451
 20
1830.037429416369
 30
0.0
 41
0.7076128936508792
 10
3099.502316148121
 20
1832.533841058442
 30
0.0
 41
0.9999999999935767
  0
SPLINE
  5
6F
330
1F
100
AcDbEntity
  8
Table_Miura_9556-01_2D
100
AcDbSpline
210
0.0
220
0.0
230
1.0
 70
    24
 71
     2
 72
     6
 73
     3
 74
     0
 42
0.0000000001
 43
0.0000000001
 40
0.0
 40
0.0
 40
0.0
 40
3.5
 40
3.5
 40
3.5
 10
3099.502316148122
 20
1832.533841058442
 30
0.0
 10
3099.502152065142
 20
1834.283841058442
 30
0.0
 10
3099.501987982162
 20
1836.033841058442
 30
0.0
  0
SPLINE
  5
70
330
1F
100
AcDbEntity
  8
Table_Miura_9556-01_2D
100
AcDbSpline
210
0.0
220
0.0
230
1.0
 70
    24
 71
     2
 72
     6
 73
     3
 74
     0
 42
0.0000000001
 43
0.0000000001
 40
-139.9993259299168
 40
-139.9993259299168
 40
-139.9993259299168
 40
0.0
 40
0.0
 40
0.0
 10
3099.501987982162
 20
1836.033841058442
 30
0.0
 10
3029.502156484216
 20
1836.033841058442
 30
0.0
 10
2959.502324986271
 20
1836.033841058442
 30
0.0
  0
SPLINE
  5
71
330
1F
100
AcDbEntity
  8
Table_Miura_9556-01_2D
100
AcDbSpline
210
0.0
220
0.0
230
1.0
 70
    24
 71
     3
 72
     9
 73
     5
 74
     0
 42
0.0000000001
 43
0.0000000001
 40
-140.0006740700831
 40
-140.0006740700831
 40
-140.0006740700831
 40
-140.0006740700831
 40
-0.000588034942917
 40
0.0
 40
0.0
 40
0.0
 40
0.0
 10
2959.502324986271
 20
1836.033841058442
 30
0.0
 10
2912.835745659118
 20
1836.03384105844
 30
0.0
 10
2866.16864328771
 20
1836.033841058443
 30
0.0
 10
2819.50202230014
 20
1836.033841058444
 30
0.0
 10
2819.50266199038
 20
1836.033841058442
 30
0.0
  0
SPLINE
  5
72
330
1F
100
AcDbEntity
  8
Table_Miura_9556-01_2D
100
AcDbSpline
210
0.0
220
0.0
230
1.0
 70
    24
 71
     2
 72
     6
 73
     3
 74
     0
 42
0.0000000001
 43
0.0000000001
 40
0.0
 40
0.0
 40
0.0
 40
3.5
 40
3.5
 40
3.5
 10
2819.50266199038
 20
1836.033841058442
 30
0.0
 10
2819.502478542115
 20
1834.283841058442
 30
0.0
 10
2819.502295093849
 20
1832.533841058442
 30
0.0
  0
SPLINE
  5
73
330
1F
100
AcDbEntity
  8
Table_Miura_9556-01_2D
100
AcDbSpline
210
0.0
220
0.0
230
1.0
 70
    12
 71
     2
 72
     6
 73
     3
 74
     0
 42
0.0000000001
 43
0.0000000001
 40
0.0
 40
0.0
 40
0.0
 40
3.923569074038741
 40
3.923569074038741
 40
3.923569074038741
 10
2819.502295093849
 20
1832.533841058442
 30
0.0
 41
0.9999999999897549
 10
2819.502270443459
 20
1830.037263408366
 30
0.0
 41
0.7075916723679009
 10
2821.998845750993
 20
1830.033843409879
 30
0.0
 41
1.0
  0
SPLINE
  5
74
330
1F
100
AcDbEntity
  8
Table_Miura_9556-01_2D
100
AcDbSpline
210
0.0
220
0.0
230
1.0
 70
    28
 71
     2
 72
     6
 73
     3
 74
     0
 42
0.0000000001
 43
0.0000000001
 40
0.0
 40
0.0
 40
0.0
 40
0.0017079348288815
 40
0.0017079348288815
 40
0.0017079348288815
 10
2821.998845750993
 20
1830.033843409879
 30
0.0
 41
1.0
 10
2821.999699717955
 20
1830.033842530462
 30
0.0
 41
1.0
 10
2822.000553684917
 20
1830.033841650937
 30
0.0
 41
1.0
  0
SPLINE
  5
75
330
1F
100
AcDbEntity
  8
Table_Miura_9556-01_2D
100
AcDbSpline
210
0.0
220
0.0
230
1.0
 70
    24
 71
     3
 72
     9
 73
     5
 74
     0
 42
0.0000000001
 43
0.0000000001
 40
0.0
 40
0.0
 40
0.0
 40
0.0
 40
0.0006373261368182
 40
137.5005588484815
 40
137.5005588484815
 40
137.5005588484815
 40
137.5005588484815
 10
3097.001683631986
 20
1830.033841058442
 30
0.0
 10
3097.002706057656
 20
1830.03384105844
 30
0.0
 10
3051.169305044741
 20
1830.033841058441
 30
0.0
 10
3005.335660404503
 20
1830.033841058441
 30
0.0
 10
2959.502362211007
 20
1830.033841058442
 30
0.0
  0
SPLINE
  5
76
330
1F
100
AcDbEntity
  8
Table_Miura_9556-01_2D
100
AcDbSpline
210
0.0
220
0.0
230
1.0
 70
    24
 71
     2
 72
     6
 73
     3
 74
     0
 42
0.0000000001
 43
0.0000000001
 40
0.0
 40
0.0
 40
0.0
 40
137.4994130277261
 40
137.4994130277261
 40
137.4994130277261
 10
2959.502362211007
 20
1830.033841058442
 30
0.0
 10
2890.752637084759
 20
1830.033841058442
 30
0.0
 10
2822.002911958512
 20
1830.033841058442
 30
0.0
  0
SPLINE
  5
77
330
1F
100
AcDbEntity
  8
Table_Miura_9556-01_2D
100
AcDbSpline
210
0.0
220
0.0
230
1.0
 70
    24
 71
     2
 72
     6
 73
     3
 74
     0
 42
0.0000000001
 43
0.0000000001
 40
-47.99848741513632
 40
-47.99848741513632
 40
-47.99848741513632
 40
0.0
 40
0.0
 40
0.0
 10
3051.070234457694
 20
1830.033084758056
 30
0.0
 10
3030.286045862233
 20
1818.033462908249
 30
0.0
 10
3009.501857266771
 20
1806.033841058442
 30
0.0
  0
SPLINE
  5
78
330
1F
100
AcDbEntity
  8
Table_Miura_9556-01_2D
100
AcDbSpline
210
0.0
220
0.0
230
1.0
 70
    24
 71
     3
 72
    10
 73
     6
 74
     0
 42
0.0000000001
 43
0.0000000001
 40
0.0
 40
0.0
 40
0.0
 40
0.0
 40
0.0007038564752122
 40
0.0009354610935191
 40
50.0009354610936
 40
50.0009354610936
 40
50.0009354610936
 40
50.0009354610936
 10
3009.501857266771
 20
1806.033841058442
 30
0.0
 10
3009.501028513653
 20
1806.033841058445
 30
0.0
 10
3009.502662187076
 20
1806.033841058442
 30
0.0
 10
2992.835823899254
 20
1806.033841058444
 30
0.0
 10
2976.168940981815
 20
1806.033841058441
 30
0.0
 10
2959.502324986271
 20
1806.033841058442
 30
0.0
  0
SPLINE
  5
79
330
1F
100
AcDbEntity
  8
Table_Miura_9556-01_2D
100
AcDbSpline
210
0.0
220
0.0
230
1.0
 70
    24
 71
     2
 72
     6
 73
     3
 74
     0
 42
0.0000000001
 43
0.0000000001
 40
0.0
 40
0.0
 40
0.0
 40
49.99906453890648
 40
49.99906453890648
 40
49.99906453890648
 10
2959.502324986271
 20
1806.033841058442
 30
0.0
 10
2934.50255884602
 20
1806.033841058442
 30
0.0
 10
2909.50279270577
 20
1806.033841058442
 30
0.0
  0
SPLINE
  5
7A
330
1F
100
AcDbEntity
  8
Table_Miura_9556-01_2D
100
AcDbSpline
210
0.0
220
0.0
230
1.0
 70
    24
 71
     2
 72
     6
 73
     3
 74
     0
 42
0.0000000001
 43
0.0000000001
 40
-47.9984874151363
 40
-47.9984874151363
 40
-47.9984874151363
 40
0.0
 40
0.0
 40
0.0
 10
2909.50279270577
 20
1806.033841058442
 30
0.0
 10
2888.718604110309
 20
1818.033462908249
 30
0.0
 10
2867.934415514848
 20
1830.033084758056
 30
0.0
  0
SPLINE
  5
7B
330
1F
100
AcDbEntity
  8
Table_Miura_9556-01_2D
100
AcDbSpline
210
0.0
220
0.0
230
1.0
 70
    24
 71
     2
 72
     6
 73
     3
 74
     0
 42
0.0000000001
 43
0.0000000001
 40
0.0
 40
0.0
 40
0.0
 40
20.0
 40
20.0
 40
20.0
 10
2409.502324986271
 20
1836.033841070079
 30
0.0
 10
2409.502324986271
 20
1842.033841070079
 30
0.0
 10
2409.502324986271
 20
1848.033841070079
 30
0.0
  0
SPLINE
  5
7C
330
1F
100
AcDbEntity
  8
Table_Miura_9556-01_2D
100
AcDbSpline
210
0.0
220
0.0
230
1.0
 70
    24
 71
     2
 72
     6
 73
     3
 74
     0
 42
0.0000000001
 43
0.0000000001
 40
0.0
 40
0.0
 40
0.0
 40
1000.0
 40
1000.0
 40
1000.0
 10
2409.502324986271
 20
1848.033841070079
 30
0.0
 10
2959.502324986271
 20
1848.033841070079
 30
0.0
 10
3509.502324986271
 20
1848.033841070079
 30
0.0
  0
SPLINE
  5
7D
330
1F
100
AcDbEntity
  8
Table_Miura_9556-01_2D
100
AcDbSpline
210
0.0
220
0.0
230
1.0
 70
    24
 71
     2
 72
     6
 73
     3
 74
     0
 42
0.0000000001
 43
0.0000000001
 40
-20.0
 40
-20.0
 40
-20.0
 40
0.0
 40
0.0
 40
0.0
 10
3509.502324986271
 20
1848.033841070079
 30
0.0
 10
3509.502324986271
 20
1842.033841070079
 30
0.0
 10
3509.502324986271
 20
1836.033841070079
 30
0.0
  0
SPLINE
  5
7E
330
1F
100
AcDbEntity
  8
Table_Miura_9556-01_2D
100
AcDbSpline
210
0.0
220
0.0
230
1.0
 70
    24
 71
     2
 72
     6
 73
     3
 74
     0
 42
0.0000000001
 43
0.0000000001
 40
-1000.0
 40
-1000.0
 40
-1000.0
 40
0.0
 40
0.0
 40
0.0
 10
3509.502324986271
 20
1836.033841070079
 30
0.0
 10
2959.502324986271
 20
1836.033841070079
 30
0.0
 10
2409.502324986271
 20
1836.033841070079
 30
0.0
  0
SPLINE
  5
7F
330
1F
100
AcDbEntity
  8
Table_Miura_9556-01_2D
100
AcDbSpline
210
0.0
220
0.0
230
1.0
 70
    24
 71
     2
 72
     6
 73
     3
 74
     0
 42
0.0000000001
 43
0.0000000001
 40
0.0
 40
0.0
 40
0.0
 40
20.0
 40
20.0
 40
20.0
 10
929.7514367565436
 20
1836.033841067335
 30
0.0
 10
929.7514367565436
 20
1842.033841067335
 30
0.0
 10
929.7514367565436
 20
1848.033841067335
 30
0.0
  0
SPLINE
  5
80
330
1F
100
AcDbEntity
  8
Table_Miura_9556-01_2D
100
AcDbSpline
210
0.0
220
0.0
230
1.0
 70
    24
 71
     2
 72
     6
 73
     3
 74
     0
 42
0.0000000001
 43
0.0000000001
 40
0.0
 40
0.0
 40
0.0
 40
1000.0
 40
1000.0
 40
1000.0
 10
929.7514367565436
 20
1848.033841067335
 30
0.0
 10
1479.751436756544
 20
1848.033841067335
 30
0.0
 10
2029.751436756544
 20
1848.033841067335
 30
0.0
  0
SPLINE
  5
81
330
1F
100
AcDbEntity
  8
Table_Miura_9556-01_2D
100
AcDbSpline
210
0.0
220
0.0
230
1.0
 70
    24
 71
     2
 72
     6
 73
     3
 74
     0
 42
0.0000000001
 43
0.0000000001
 40
-20.0
 40
-20.0
 40
-20.0
 40
0.0
 40
0.0
 40
0.0
 10
2029.751436756544
 20
1848.033841067335
 30
0.0
 10
2029.751436756544
 20
1842.033841067335
 30
0.0
 10
2029.751436756544
 20
1836.033841067335
 30
0.0
  0
SPLINE
  5
82
330
1F
100
AcDbEntity
  8
Table_Miura_9556-01_2D
100
AcDbSpline
210
0.0
220
0.0
230
1.0
 70
    24
 71
     2
 72
     6
 73
     3
 74
     0
 42
0.0000000001
 43
0.0000000001
 40
-1000.0
 40
-1000.0
 40
-1000.0
 40
0.0
 40
0.0
 40
0.0
 10
2029.751436756544
 20
1836.033841067335
 30
0.0
 10
1479.751436756544
 20
1836.033841067335
 30
0.0
 10
929.7514367565436
 20
1836.033841067335
 30
0.0
  0
SPLINE
  5
83
330
1F
100
AcDbEntity
  8
Table_Miura_9556-01_2D
100
AcDbSpline
210
0.0
220
0.0
230
1.0
 70
    24
 71
     2
 72
     6
 73
     3
 74
     0
 42
0.0000000001
 43
0.0000000001
 40
0.0
 40
0.0
 40
0.0
 40
20.0
 40
20.0
 40
20.0
 10
-549.999451473183
 20
1836.03384106459
 30
0.0
 10
-549.999451473183
 20
1842.03384106459
 30
0.0
 10
-549.999451473183
 20
1848.03384106459
 30
0.0
  0
SPLINE
  5
84
330
1F
100
AcDbEntity
  8
Table_Miura_9556-01_2D
100
AcDbSpline
210
0.0
220
0.0
230
1.0
 70
    24
 71
     2
 72
     6
 73
     3
 74
     0
 42
0.0000000001
 43
0.0000000001
 40
0.0
 40
0.0
 40
0.0
 40
1000.0
 40
1000.0
 40
1000.0
 10
-549.999451473183
 20
1848.03384106459
 30
0.0
 10
0.000548526817056
 20
1848.03384106459
 30
0.0
 10
550.000548526817
 20
1848.03384106459
 30
0.0
  0
SPLINE
  5
85
330
1F
100
AcDbEntity
  8
Table_Miura_9556-01_2D
100
AcDbSpline
210
0.0
220
0.0
230
1.0
 70
    24
 71
     2
 72
     6
 73
     3
 74
     0
 42
0.0000000001
 43
0.0000000001
 40
-20.0
 40
-20.0
 40
-20.0
 40
0.0
 40
0.0
 40
0.0
 10
550.000548526817
 20
1848.03384106459
 30
0.0
 10
550.000548526817
 20
1842.03384106459
 30
0.0
 10
550.000548526817
 20
1836.03384106459
 30
0.0
  0
SPLINE
  5
86
330
1F
100
AcDbEntity
  8
Table_Miura_9556-01_2D
100
AcDbSpline
210
0.0
220
0.0
230
1.0
 70
    24
 71
     2
 72
     6
 73
     3
 74
     0
 42
0.0000000001
 43
0.0000000001
 40
-1000.0
 40
-1000.0
 40
-1000.0
 40
0.0
 40
0.0
 40
0.0
 10
550.000548526817
 20
1836.03384106459
 30
0.0
 10
0.000548526817056
 20
1836.03384106459
 30
0.0
 10
-549.999451473183
 20
1836.03384106459
 30
0.0
  0
CIRCLE
  5
87
330
1F
100
AcDbEntity
  8
Table_Miura_9556-01_2D
100
AcDbCircle
 10
0.0
 20
0.0
 30
0.0
 40
550.0
  0
SPLINE
  5
88
330
1F
100
AcDbEntity
  8
Table_Miura_9556-01_2D
 62
     9
100
AcDbSpline
210
0.0
220
0.0
230
1.0
 70
    24
 71
     2
 72
     6
 73
     3
 74
     0
 42
0.0000000001
 43
0.0000000001
 40
0.0
 40
0.0
 40
0.0
 40
292.4637748391294
 40
292.4637748391294
 40
292.4637748391294
 10
131.8391889525283
 20
-47.09976536284623
 30
0.0
 10
258.4797183012172
 20
-120.215709072629
 30
0.0
 10
385.1202476499061
 20
-193.3316527824119
 30
0.0
  0
SPLINE
  5
89
330
1F
100
AcDbEntity
  8
Table_Miura_9556-01_2D
 62
     9
100
AcDbSpline
210
0.0
220
0.0
230
1.0
 70
    24
 71
     2
 72
     6
 73
     3
 74
     0
 42
0.0000000001
 43
0.0000000001
 40
0.0
 40
0.0
 40
0.0
 40
292.4636352290659
 40
292.4636352290659
 40
292.4636352290659
 10
359.9902464901561
 20
-236.8580915853689
 30
0.0
 10
233.3497775943977
 20
-163.7421827781027
 30
0.0
 10
106.7093086986392
 20
-90.62627397083659
 30
0.0
  0
SPLINE
  5
8A
330
1F
100
AcDbEntity
  8
Table_Miura_9556-01_2D
 62
     9
100
AcDbSpline
210
0.0
220
0.0
230
1.0
 70
     8
 71
     3
 72
    16
 73
    12
 74
     0
 42
0.0000000001
 43
0.0000000001
 40
0.0
 40
0.0
 40
0.0
 40
0.0
 40
1.95325992947243
 40
3.893697348735648
 40
7.847459668867762
 40
11.91051884330159
 40
16.08272671121301
 40
20.36395351632568
 40
24.75412185613719
 40
29.18059527459946
 40
33.71437348097826
 40
33.71437348097826
 40
33.71437348097826
 40
33.71437348097826
 10
388.0182735784692
 20
-195.4085587814629
 30
0.0
 10
388.52583341729
 20
-195.8163469850343
 30
0.0
 10
389.4962294595466
 20
-196.680829927778
 30
0.0
 10
391.2618133300871
 20
-198.6157034820813
 30
0.0
 10
393.1097762750978
 20
-201.3927192084582
 30
0.0
 10
394.6698340385465
 20
-205.1640880688925
 30
0.0
 10
395.5334671461987
 20
-209.2631199056825
 30
0.0
 10
395.675887082471
 20
-213.5573625487886
 30
0.0
 10
395.0971226079814
 20
-217.89927596119
 30
0.0
 10
393.8163492744602
 20
-222.175213654878
 30
0.0
 10
392.5237676897345
 20
-224.8777312778844
 30
0.0
 10
391.7680841507204
 20
-226.1865408503279
 30
0.0
  0
SPLINE
  5
8B
330
1F
100
AcDbEntity
  8
Table_Miura_9556-01_2D
 62
     9
100
AcDbSpline
210
0.0
220
0.0
230
1.0
 70
     8
 71
     3
 72
    16
 73
    12
 74
     0
 42
0.0000000001
 43
0.0000000001
 40
0.0
 40
0.0
 40
0.0
 40
0.0
 40
4.517138909949124
 40
8.979902653169885
 40
13.35193316290752
 40
17.61498633655958
 40
21.78720834057724
 40
25.85028218879273
 40
29.82218011666251
 40
31.76261295261897
 40
33.71587578191723
 40
33.71587578191723
 40
33.71587578191723
 40
33.71587578191723
 10
391.7680841859192
 20
-226.1865408706321
 30
0.0
 10
391.0152352335226
 20
-227.4905569007226
 30
0.0
 10
389.3183579377469
 20
-229.9672753006667
 30
0.0
 10
386.2551712884169
 20
-233.2149443497529
 30
0.0
 10
382.7834916866545
 20
-235.885836555388
 30
0.0
 10
379.0049181767808
 20
-237.905187062287
 30
0.0
 10
375.0300070641747
 20
-239.2079194276056
 30
0.0
 10
370.9783071501529
 20
-239.7468146836387
 30
0.0
 10
367.6430810508787
 20
-239.5361305638716
 30
0.0
 10
365.078699877839
 20
-238.9732106489125
 30
0.0
 10
363.8448561542828
 20
-238.5650829537328
 30
0.0
 10
363.2379153485995
 20
-238.3294035162096
 30
0.0
  0
SPLINE
  5
8C
330
1F
100
AcDbEntity
  8
Table_Miura_9556-01_2D
 62
     9
100
AcDbSpline
210
0.0
220
0.0
230
1.0
 70
    24
 71
     2
 72
     6
 73
     3
 74
     0
 42
0.0000000001
 43
0.0000000001
 40
0.0
 40
0.0
 40
0.0
 40
0.0063928483433606
 40
0.0063928483433606
 40
0.0063928483433606
 10
359.9957835970035
 20
-236.8612871019521
 30
0.0
 10
359.9930261821241
 20
-236.8596703797535
 30
0.0
 10
359.9902687672447
 20
-236.858053657555
 30
0.0
  0
SPLINE
  5
8D
330
1F
100
AcDbEntity
  8
Table_Miura_9556-01_2D
 62
     9
100
AcDbSpline
210
0.0
220
0.0
230
1.0
 70
     8
 71
     3
 72
    21
 73
    17
 74
     0
 42
0.0000000001
 43
0.0000000001
 40
0.0
 40
0.0
 40
0.0
 40
0.0
 40
0.6474029135792417
 40
1.239961044886482
 40
2.476453160975514
 40
4.946874230086162
 40
9.81187571677458
 40
14.60311204865856
 40
19.26182109583128
 40
23.71953059288253
 40
28.04750617317448
 40
30.15634514329232
 40
32.34209708179572
 40
34.43001776247154
 40
35.4472927633531
 40
36.53849393442139
 40
36.53849393442139
 40
36.53849393442139
 40
36.53849393442139
 10
391.0212911389985
 20
-225.7620211977927
 30
0.0
 10
390.9126618850996
 20
-225.9484825747147
 30
0.0
 10
390.7033235367176
 20
-226.3049037443068
 30
0.0
 10
390.2675284385409
 20
-227.0060397194419
 30
0.0
 10
389.474604989824
 20
-228.200200531716
 30
0.0
 10
387.7462819711236
 20
-230.4787215285965
 30
0.0
 10
384.9069166327122
 20
-233.3760849779028
 30
0.0
 10
381.0171805482291
 20
-236.1721323043965
 30
0.0
 10
376.8038946855886
 20
-238.1551251293413
 30
0.0
 10
372.4381047957731
 20
-239.2590456145524
 30
0.0
 10
368.7893202341311
 20
-239.4148114995508
 30
0.0
 10
365.931822576013
 20
-239.0647659130972
 30
0.0
 10
363.8583343158643
 20
-238.5728053646318
 30
0.0
 10
362.1999990754016
 20
-237.9641368643885
 30
0.0
 10
360.9295987839832
 20
-237.3772378203039
 30
0.0
 10
360.3132009162628
 20
-237.0387913547884
 30
0.0
 10
359.995783597004
 20
-236.8612871019523
 30
0.0
  0
SPLINE
  5
8E
330
1F
100
AcDbEntity
  8
Table_Miura_9556-01_2D
 62
     9
100
AcDbSpline
210
0.0
220
0.0
230
1.0
 70
    24
 71
     2
 72
     6
 73
     3
 74
     0
 42
0.0000000001
 43
0.0000000001
 40
0.0
 40
0.0
 40
0.0
 40
0.0049999976304551
 40
0.0049999976304551
 40
0.0049999976304551
 10
391.0237901869282
 20
-225.7576905239712
 30
0.0
 10
391.0225406629634
 20
-225.7598558608819
 30
0.0
 10
391.0212911389985
 20
-225.7620211977927
 30
0.0
  0
SPLINE
  5
8F
330
1F
100
AcDbEntity
  8
Table_Miura_9556-01_2D
 62
     9
100
AcDbSpline
210
0.0
220
0.0
230
1.0
 70
    24
 71
     2
 72
     6
 73
     3
 74
     0
 42
0.0000000001
 43
0.0000000001
 40
0.0
 40
0.0
 40
0.0
 40
0.0049999976313646
 40
0.0049999976313646
 40
0.0049999976313646
 10
391.0262911365089
 20
-225.753360948067
 30
0.0
 10
391.0250406617185
 20
-225.7555257360191
 30
0.0
 10
391.0237901869282
 20
-225.7576905239712
 30
0.0
  0
SPLINE
  5
90
330
1F
100
AcDbEntity
  8
Table_Miura_9556-01_2D
 62
     9
100
AcDbSpline
210
0.0
220
0.0
230
1.0
 70
     8
 71
     3
 72
    21
 73
    17
 74
     0
 42
0.0000000001
 43
0.0000000001
 40
0.0
 40
0.0
 40
0.0
 40
0.0
 40
1.091201171068477
 40
2.108476171950745
 40
4.196396852625397
 40
6.382148791129788
 40
8.49098776124772
 40
12.81896334153915
 40
17.27667283858979
 40
21.93538188576371
 40
26.72661821764646
 40
31.59161970433673
 40
34.0620407734465
 40
35.29853288953552
 40
35.89109102084187
 40
36.53849393442204
 40
36.53849393442204
 40
36.53849393442204
 40
36.53849393442204
 10
385.1257836018717
 20
-193.3348502993143
 30
0.0
 10
385.4382063358753
 20
-193.5210034730012
 30
0.0
 10
386.0395338968096
 20
-193.8855579183765
 30
0.0
 10
387.1829746470758
 20
-194.6924696752641
 30
0.0
 10
388.5392119505455
 20
-195.8239442608012
 30
0.0
 10
390.0021961517918
 20
-197.3741064216471
 30
0.0
 10
391.7338535395897
 20
-199.6734082052285
 30
0.0
 10
393.4235431743623
 20
-202.9113814185383
 30
0.0
 10
394.6503320160355
 20
-207.2442157051474
 30
0.0
 10
395.0396611698911
 20
-211.884456572264
 30
0.0
 10
394.5628915621601
 20
-216.6510908041939
 30
0.0
 10
393.4737307118371
 20
-220.5588087571803
 30
0.0
 10
392.3642842356981
 20
-223.1947220490297
 30
0.0
 10
391.7269324326171
 20
-224.4786495809259
 30
0.0
 10
391.3374521800147
 20
-225.2065487853804
 30
0.0
 10
391.1334595735379
 20
-225.5660560873263
 30
0.0
 10
391.0262911365085
 20
-225.7533609480678
 30
0.0
  0
SPLINE
  5
91
330
1F
100
AcDbEntity
  8
Table_Miura_9556-01_2D
 62
     9
100
AcDbSpline
210
0.0
220
0.0
230
1.0
 70
    24
 71
     2
 72
     6
 73
     3
 74
     0
 42
0.0000000001
 43
0.0000000001
 40
0.0
 40
0.0
 40
0.0
 40
0.006392848346089
 40
0.006392848346089
 40
0.006392848346089
 10
385.1202259420006
 20
-193.3316910388425
 30
0.0
 10
385.1230047719362
 20
-193.3332706690784
 30
0.0
 10
385.1257836018717
 20
-193.3348502993143
 30
0.0
  0
SPLINE
  5
92
330
1F
100
AcDbEntity
  8
Table_Miura_9556-01_2D
 62
     9
100
AcDbSpline
210
0.0
220
0.0
230
1.0
 70
    24
 71
     2
 72
     6
 73
     3
 74
     0
 42
0.0000000001
 43
0.0000000001
 40
0.0
 40
0.0
 40
0.0
 40
292.4637748391294
 40
292.4637748391294
 40
292.4637748391294
 10
-106.7091877927755
 20
-90.62620416580351
 30
0.0
 10
-233.3497171414648
 20
-163.7421478755854
 30
0.0
 10
-359.990246490154
 20
-236.8580915853674
 30
0.0
  0
SPLINE
  5
93
330
1F
100
AcDbEntity
  8
Table_Miura_9556-01_2D
 62
     9
100
AcDbSpline
210
0.0
220
0.0
230
1.0
 70
    24
 71
     2
 72
     6
 73
     3
 74
     0
 42
0.0000000001
 43
0.0000000001
 40
0.0
 40
0.0
 40
0.0
 40
292.4636352290659
 40
292.4636352290659
 40
292.4636352290659
 10
-385.1202476499086
 20
-193.3316527824128
 30
0.0
 10
-258.4797787541505
 20
-120.215743975146
 30
0.0
 10
-131.8393098583924
 20
-47.0998351678792
 30
0.0
  0
SPLINE
  5
94
330
1F
100
AcDbEntity
  8
Table_Miura_9556-01_2D
 62
     9
100
AcDbSpline
210
0.0
220
0.0
230
1.0
 70
     8
 71
     3
 72
    16
 73
    12
 74
     0
 42
0.0000000001
 43
0.0000000001
 40
0.0
 40
0.0
 40
0.0
 40
0.0
 40
1.95325992947243
 40
3.893697348735648
 40
7.847459668867762
 40
11.91051884330159
 40
16.08272671121301
 40
20.36395351632568
 40
24.75412185613719
 40
29.18059527459946
 40
33.71437348097826
 40
33.71437348097826
 40
33.71437348097826
 40
33.71437348097826
 10
-363.237912810886
 20
-238.3294026608033
 30
0.0
 10
-363.8448476739529
 20
-238.5650682733773
 30
0.0
 10
-365.0787098846356
 20
-238.9732144263316
 30
0.0
 10
-367.6371514710431
 20
-239.5348181335798
 30
0.0
 10
-370.9660991092999
 20
-239.7466931260232
 30
0.0
 10
-375.0122292312019
 20
-239.2120583503237
 30
0.0
 10
-378.9939114866092
 20
-237.9104706427047
 30
0.0
 10
-382.7840446736898
 20
-235.886688603969
 30
0.0
 10
-386.254869752617
 20
-233.2145071600523
 30
0.0
 10
-389.3175537535894
 20
-229.9673560698891
 30
0.0
 10
-391.0117118769253
 20
-227.4966887695495
 30
0.0
 10
-391.7673324458706
 20
-226.1878428413197
 30
0.0
  0
SPLINE
  5
95
330
1F
100
AcDbEntity
  8
Table_Miura_9556-01_2D
 62
     9
100
AcDbSpline
210
0.0
220
0.0
230
1.0
 70
     8
 71
     3
 72
    16
 73
    12
 74
     0
 42
0.0000000001
 43
0.0000000001
 40
0.0
 40
0.0
 40
0.0
 40
0.0
 40
4.517138909949124
 40
8.979902653169885
 40
13.35193316290752
 40
17.61498633655958
 40
21.78720834057724
 40
25.85028218879273
 40
29.82218011666251
 40
31.76261295261897
 40
33.71587578191723
 40
33.71587578191723
 40
33.71587578191723
 40
33.71587578191723
 10
-391.7673324810542
 20
-226.1878428616508
 30
0.0
 10
-392.5202190138561
 20
-224.8838485286176
 30
0.0
 10
-393.8166814183405
 20
-222.175950483399
 30
0.0
 10
-395.0976519932685
 20
-217.8993185040026
 30
0.0
 10
-395.6748726932371
 20
-213.5573096722586
 30
0.0
 10
-395.53439477642
 20
-209.2752937691917
 30
0.0
 10
-394.6751385428149
 20
-205.1815535852302
 30
0.0
 10
-393.1159855675076
 20
-201.4032309031596
 30
0.0
 10
-391.2659147179781
 20
-198.6201824337068
 30
0.0
 10
-389.4962211848074
 20
-196.6808231503474
 30
0.0
 10
-388.5258503710158
 20
-195.8163469890376
 30
0.0
 10
-388.0182755881294
 20
-195.4085605514842
 30
0.0
  0
SPLINE
  5
96
330
1F
100
AcDbEntity
  8
Table_Miura_9556-01_2D
 62
     9
100
AcDbSpline
210
0.0
220
0.0
230
1.0
 70
    24
 71
     2
 72
     6
 73
     3
 74
     0
 42
0.0000000001
 43
0.0000000001
 40
0.0
 40
0.0
 40
0.0
 40
0.0063928483433606
 40
0.0063928483433606
 40
0.0063928483433606
 10
-385.1257836018717
 20
-193.3348502993148
 30
0.0
 10
-385.1230047719371
 20
-193.3332706690796
 30
0.0
 10
-385.1202259420024
 20
-193.3316910388444
 30
0.0
  0
SPLINE
  5
97
330
1F
100
AcDbEntity
  8
Table_Miura_9556-01_2D
 62
     9
100
AcDbSpline
210
0.0
220
0.0
230
1.0
 70
     8
 71
     3
 72
    21
 73
    17
 74
     0
 42
0.0000000001
 43
0.0000000001
 40
0.0
 40
0.0
 40
0.0
 40
0.0
 40
0.6474029135792417
 40
1.239961044886482
 40
2.476453160975514
 40
4.946874230086162
 40
9.81187571677458
 40
14.60311204865856
 40
19.26182109583128
 40
23.71953059288253
 40
28.04750617317448
 40
30.15634514329232
 40
32.34209708179572
 40
34.43001776247154
 40
35.4472927633531
 40
36.53849393442139
 40
36.53849393442139
 40
36.53849393442139
 40
36.53849393442139
 10
-391.0262911365085
 20
-225.7533609480676
 30
0.0
 10
-391.1334567987983
 20
-225.5660545661363
 30
0.0
 10
-391.3374574119205
 20
-225.206551653655
 30
0.0
 10
-391.7267614288064
 20
-224.4785740402216
 30
0.0
 10
-392.364473304081
 20
-223.1948017842392
 30
0.0
 10
-393.4735688610858
 20
-220.5587696456593
 30
0.0
 10
-394.5630765429755
 20
-216.6511254073167
 30
0.0
 10
-395.0396565156614
 20
-211.8844914808905
 30
0.0
 10
-394.6503357462655
 20
-207.2441824779657
 30
0.0
 10
-393.4234639853087
 20
-202.9113372831946
 30
0.0
 10
-391.7339689179391
 20
-199.673514217377
 30
0.0
 10
-390.0020717185287
 20
-197.373871447419
 30
0.0
 10
-388.5392772558237
 20
-195.824158213914
 30
0.0
 10
-387.1829872518983
 20
-194.6923320178042
 30
0.0
 10
-386.0395176245549
 20
-193.8855826145029
 30
0.0
 10
-385.4382154537373
 20
-193.5209896349761
 30
0.0
 10
-385.1257836018719
 20
-193.3348502993151
 30
0.0
  0
SPLINE
  5
98
330
1F
100
AcDbEntity
  8
Table_Miura_9556-01_2D
 62
     9
100
AcDbSpline
210
0.0
220
0.0
230
1.0
 70
    24
 71
     2
 72
     6
 73
     3
 74
     0
 42
0.0000000001
 43
0.0000000001
 40
0.0
 40
0.0
 40
0.0
 40
0.0049999976304551
 40
0.0049999976304551
 40
0.0049999976304551
 10
-391.0237901869286
 20
-225.757690523971
 30
0.0
 10
-391.0250406617185
 20
-225.7555257360193
 30
0.0
 10
-391.0262911365085
 20
-225.7533609480676
 30
0.0
  0
SPLINE
  5
99
330
1F
100
AcDbEntity
  8
Table_Miura_9556-01_2D
 62
     9
100
AcDbSpline
210
0.0
220
0.0
230
1.0
 70
    24
 71
     2
 72
     6
 73
     3
 74
     0
 42
0.0000000001
 43
0.0000000001
 40
0.0
 40
0.0
 40
0.0
 40
0.0049999976313646
 40
0.0049999976313646
 40
0.0049999976313646
 10
-391.0212911389981
 20
-225.7620211977932
 30
0.0
 10
-391.0225406629634
 20
-225.7598558608821
 30
0.0
 10
-391.0237901869286
 20
-225.757690523971
 30
0.0
  0
SPLINE
  5
9A
330
1F
100
AcDbEntity
  8
Table_Miura_9556-01_2D
 62
     9
100
AcDbSpline
210
0.0
220
0.0
230
1.0
 70
     8
 71
     3
 72
    21
 73
    17
 74
     0
 42
0.0000000001
 43
0.0000000001
 40
0.0
 40
0.0
 40
0.0
 40
0.0
 40
1.091201171068477
 40
2.108476171950745
 40
4.196396852625397
 40
6.382148791129788
 40
8.49098776124772
 40
12.81896334153915
 40
17.27667283858979
 40
21.93538188576371
 40
26.72661821764646
 40
31.59161970433673
 40
34.0620407734465
 40
35.29853288953552
 40
35.89109102084187
 40
36.53849393442204
 40
36.53849393442204
 40
36.53849393442204
 40
36.53849393442204
 10
-359.9957835970035
 20
-236.8612871019527
 30
0.0
 10
-360.313208341413
 20
-237.0387765394758
 30
0.0
 10
-360.9295855326379
 20
-237.3772642605531
 30
0.0
 10
-362.2001119878478
 20
-237.964057119562
 30
0.0
 10
-363.8581163743943
 20
-238.5728557851583
 30
0.0
 10
-365.9320882862955
 20
-239.0647561883501
 30
0.0
 10
-368.7891707357428
 20
-239.4147645850435
 30
0.0
 10
-372.4381826126289
 20
-239.2590921266128
 30
0.0
 10
-376.8039215960571
 20
-238.1551052852764
 30
0.0
 10
-381.0171526435865
 20
-236.172153789391
 30
0.0
 10
-384.9067941751209
 20
-233.3759420813786
 30
0.0
 10
-387.7463967680703
 20
-230.4788421396983
 30
0.0
 10
-389.4744414029153
 20
-228.2000766612983
 30
0.0
 10
-390.2676793606151
 20
-227.006150042734
 30
0.0
 10
-390.7033184367663
 20
-226.3049006474807
 30
0.0
 10
-390.9126645898591
 20
-225.9484842171149
 30
0.0
 10
-391.0212911389985
 20
-225.7620211977924
 30
0.0
  0
SPLINE
  5
9B
330
1F
100
AcDbEntity
  8
Table_Miura_9556-01_2D
 62
     9
100
AcDbSpline
210
0.0
220
0.0
230
1.0
 70
    24
 71
     2
 72
     6
 73
     3
 74
     0
 42
0.0000000001
 43
0.0000000001
 40
0.0
 40
0.0
 40
0.0
 40
0.006392848346089
 40
0.006392848346089
 40
0.006392848346089
 10
-359.990268767242
 20
-236.8580536575542
 30
0.0
 10
-359.9930261821228
 20
-236.8596703797534
 30
0.0
 10
-359.9957835970035
 20
-236.8612871019527
 30
0.0
  0
SPLINE
  5
9C
330
1F
100
AcDbEntity
  8
Table_Miura_9556-01_2D
 62
     9
100
AcDbSpline
210
0.0
220
0.0
230
1.0
 70
    24
 71
     2
 72
     6
 73
     3
 74
     0
 42
0.0000000001
 43
0.0000000001
 40
0.0
 40
0.0
 40
0.0
 40
292.4637748391294
 40
292.4637748391294
 40
292.4637748391294
 10
-25.13000115975319
 20
137.7259695286496
 30
0.0
 10
-25.13000115975274
 20
283.9578569482143
 30
0.0
 10
-25.13000115975228
 20
430.189744367779
 30
0.0
  0
SPLINE
  5
9D
330
1F
100
AcDbEntity
  8
Table_Miura_9556-01_2D
 62
     9
100
AcDbSpline
210
0.0
220
0.0
230
1.0
 70
    24
 71
     2
 72
     6
 73
     3
 74
     0
 42
0.0000000001
 43
0.0000000001
 40
0.0
 40
0.0
 40
0.0
 40
292.4636352290659
 40
292.4636352290659
 40
292.4636352290659
 10
25.13000115975228
 20
430.1897443677815
 30
0.0
 10
25.13000115975274
 20
283.9579267532486
 30
0.0
 10
25.13000115975319
 20
137.7261091387156
 30
0.0
  0
SPLINE
  5
9E
330
1F
100
AcDbEntity
  8
Table_Miura_9556-01_2D
 62
     9
100
AcDbSpline
210
0.0
220
0.0
230
1.0
 70
     8
 71
     3
 72
    16
 73
    12
 74
     0
 42
0.0000000001
 43
0.0000000001
 40
0.0
 40
0.0
 40
0.0
 40
0.0
 40
1.95325992947243
 40
3.893697348735648
 40
7.847459668867762
 40
11.91051884330159
 40
16.08272671121301
 40
20.36395351632568
 40
24.75412185613719
 40
29.18059527459946
 40
33.71437348097826
 40
33.71437348097826
 40
33.71437348097826
 40
33.71437348097826
 10
-24.78036076758326
 20
433.7379614422659
 30
0.0
 10
-24.68098574333726
 20
434.3814152584114
 30
0.0
 10
-24.41751957491124
 20
435.6540443541094
 30
0.0
 10
-23.62466185904395
 20
438.1505216156609
 30
0.0
 10
-22.14367716579818
 20
441.1394123344812
 30
0.0
 10
-19.6576048073448
 20
444.376146419216
 30
0.0
 10
-16.5395556595895
 20
447.173590548387
 30
0.0
 10
-12.89184240878149
 20
449.4440511527573
 30
0.0
 10
-8.842252855364677
 20
451.113783121242
 30
0.0
 10
-4.498795520870772
 20
452.1425697247669
 30
0.0
 10
-1.512055812809194
 20
452.3744200474337
 30
0.0
 10
-0.0007517048497903
 20
452.3743836916474
 30
0.0
  0
SPLINE
  5
9F
330
1F
100
AcDbEntity
  8
Table_Miura_9556-01_2D
 62
     9
100
AcDbSpline
210
0.0
220
0.0
230
1.0
 70
     8
 71
     3
 72
    16
 73
    12
 74
     0
 42
0.0000000001
 43
0.0000000001
 40
0.0
 40
0.0
 40
0.0
 40
0.0
 40
4.517138909949124
 40
8.979902653169885
 40
13.35193316290752
 40
17.61498633655958
 40
21.78720834057724
 40
25.85028218879273
 40
29.82218011666251
 40
31.76261295261897
 40
33.71587578191723
 40
33.71587578191723
 40
33.71587578191723
 40
33.71587578191723
 10
-0.0007517048652517
 20
452.3743837322827
 30
0.0
 10
1.504983780333532
 20
452.37440542934
 30
0.0
 10
4.498323480593172
 20
452.1432257840654
 30
0.0
 10
8.842480704851369
 20
451.1142628537552
 30
0.0
 10
12.89138100658238
 20
449.4431462276464
 30
0.0
 10
16.52947659963866
 20
447.1804808314785
 30
0.0
 10
19.64513147864
 20
444.3894730128357
 30
0.0
 10
22.13767841735444
 20
441.1500455867981
 30
0.0
 10
23.62283366709926
 20
438.1563129975782
 30
0.0
 10
24.41752130696841
 20
435.6540337992597
 30
0.0
 10
24.68099421673287
 20
434.3814299427702
 30
0.0
 10
24.78036023952973
 20
433.7379640676936
 30
0.0
  0
SPLINE
  5
A0
330
1F
100
AcDbEntity
  8
Table_Miura_9556-01_2D
 62
     9
100
AcDbSpline
210
0.0
220
0.0
230
1.0
 70
    24
 71
     2
 72
     6
 73
     3
 74
     0
 42
0.0000000001
 43
0.0000000001
 40
0.0
 40
0.0
 40
0.0
 40
0.0063928483433606
 40
0.0063928483433606
 40
0.0063928483433606
 10
25.13000000486772
 20
430.1961374012667
 30
0.0
 10
25.12997858981271
 20
430.1929410488329
 30
0.0
 10
25.12995717475769
 20
430.1897446963992
 30
0.0
  0
SPLINE
  5
A1
330
1F
100
AcDbEntity
  8
Table_Miura_9556-01_2D
 62
     9
100
AcDbSpline
210
0.0
220
0.0
230
1.0
 70
     8
 71
     3
 72
    21
 73
    17
 74
     0
 42
0.0000000001
 43
0.0000000001
 40
0.0
 40
0.0
 40
0.0
 40
0.0
 40
0.6474029135792417
 40
1.239961044886482
 40
2.476453160975514
 40
4.946874230086162
 40
9.81187571677458
 40
14.60311204865856
 40
19.26182109583128
 40
23.71953059288253
 40
28.04750617317448
 40
30.15634514329232
 40
32.34209708179572
 40
34.43001776247154
 40
35.4472927633531
 40
36.53849393442139
 40
36.53849393442139
 40
36.53849393442139
 40
36.53849393442139
 10
0.0049999975099126
 20
451.51538214586
 30
0.0
 10
0.2207949136982279
 20
451.5145371408507
 30
0.0
 10
0.6341338752026786
 20
451.5114553979615
 30
0.0
 10
1.459232990265264
 20
451.4846137596633
 30
0.0
 10
2.889868314257001
 20
451.395002315955
 30
0.0
 10
5.727286889961761
 20
451.0374911742556
 30
0.0
 10
9.65615991026334
 20
450.0272103852192
 30
0.0
 10
14.022475967432
 20
448.0566237852868
 30
0.0
 10
17.84644106067663
 20
445.3993076073068
 30
0.0
 10
20.9853591895353
 20
442.1703828977468
 30
0.0
 10
22.94464868380783
 20
439.0883257169276
 30
0.0
 10
24.07024914251542
 20
436.4386373605159
 30
0.0
 10
24.6809429399591
 20
434.3969635785456
 30
0.0
 10
24.98298817649629
 20
432.6564688821925
 30
0.0
 10
25.10991884057148
 20
431.2628204348066
 30
0.0
 10
25.12501453747427
 20
430.5597809897642
 30
0.0
 10
25.13000000486772
 20
430.1961374012672
 30
0.0
  0
SPLINE
  5
A2
330
1F
100
AcDbEntity
  8
Table_Miura_9556-01_2D
 62
     9
100
AcDbSpline
210
0.0
220
0.0
230
1.0
 70
    24
 71
     2
 72
     6
 73
     3
 74
     0
 42
0.0000000001
 43
0.0000000001
 40
0.0
 40
0.0
 40
0.0
 40
0.0049999976304551
 40
0.0049999976304551
 40
0.0049999976304551
 10
0.0
 20
451.5153810479419
 30
0.0
 10
0.0024999987549563
 20
451.515381596901
 30
0.0
 10
0.0049999975099126
 20
451.51538214586
 30
0.0
  0
SPLINE
  5
A3
330
1F
100
AcDbEntity
  8
Table_Miura_9556-01_2D
 62
     9
100
AcDbSpline
210
0.0
220
0.0
230
1.0
 70
    24
 71
     2
 72
     6
 73
     3
 74
     0
 42
0.0000000001
 43
0.0000000001
 40
0.0
 40
0.0
 40
0.0
 40
0.0049999976313646
 40
0.0049999976313646
 40
0.0049999976313646
 10
-0.0049999975108221
 20
451.51538214586
 30
0.0
 10
-0.0024999987554111
 20
451.515381596901
 30
0.0
 10
0.0
 20
451.5153810479419
 30
0.0
  0
SPLINE
  5
A4
330
1F
100
AcDbEntity
  8
Table_Miura_9556-01_2D
 62
     9
100
AcDbSpline
210
0.0
220
0.0
230
1.0
 70
     8
 71
     3
 72
    21
 73
    17
 74
     0
 42
0.0000000001
 43
0.0000000001
 40
0.0
 40
0.0
 40
0.0
 40
0.0
 40
1.091201171068477
 40
2.108476171950745
 40
4.196396852625397
 40
6.382148791129788
 40
8.49098776124772
 40
12.81896334153915
 40
17.27667283858979
 40
21.93538188576371
 40
26.72661821764646
 40
31.59161970433673
 40
34.0620407734465
 40
35.29853288953552
 40
35.89109102084187
 40
36.53849393442204
 40
36.53849393442204
 40
36.53849393442204
 40
36.53849393442204
 10
-25.13000000486863
 20
430.1961374012667
 30
0.0
 10
-25.12499799446232
 20
430.5597800124767
 30
0.0
 10
-25.10994836417194
 20
431.2628221789294
 30
0.0
 10
-24.98286265922798
 20
432.6565267948258
 30
0.0
 10
-24.68109557615117
 20
434.3968000459593
 30
0.0
 10
-24.07010786549654
 20
436.4388626099969
 30
0.0
 10
-22.94468280384717
 20
439.0881727902718
 30
0.0
 10
-20.98536056173361
 20
442.1704735451508
 30
0.0
 10
-17.84641041997838
 20
445.3993209904236
 30
0.0
 10
-14.02250852630459
 20
448.0566103616547
 30
0.0
 10
-9.656097387039154
 20
450.0270328855722
 30
0.0
 10
-5.727333943767007
 20
451.0376508968784
 30
0.0
 10
-2.889842832782961
 20
451.3947987103277
 30
0.0
 10
-1.459253072001957
 20
451.4847996236597
 30
0.0
 10
-0.6341337432486398
 20
451.5114494328609
 30
0.0
 10
-0.2207949836792977
 20
451.514540304441
 30
0.0
 10
-0.0049999975099126
 20
451.51538214586
 30
0.0
  0
SPLINE
  5
A5
330
1F
100
AcDbEntity
  8
Table_Miura_9556-01_2D
 62
     9
100
AcDbSpline
210
0.0
220
0.0
230
1.0
 70
    24
 71
     2
 72
     6
 73
     3
 74
     0
 42
0.0000000001
 43
0.0000000001
 40
0.0
 40
0.0
 40
0.0
 40
0.006392848346089
 40
0.006392848346089
 40
0.006392848346089
 10
-25.1299571747586
 20
430.1897446963965
 30
0.0
 10
-25.12997858981362
 20
430.1929410488316
 30
0.0
 10
-25.13000000486863
 20
430.1961374012667
 30
0.0
  0
SPLINE
  5
A6
330
1F
100
AcDbEntity
  8
Table_Miura_9556-01_2D
 62
     9
100
AcDbSpline
210
0.0
220
0.0
230
1.0
 70
     8
 71
     3
 72
    39
 73
    35
 74
     0
 42
0.0000000001
 43
0.0000000001
 40
0.0
 40
0.0
 40
0.0
 40
0.0
 40
27.4916163463202
 40
54.98552609366759
 40
82.47415387133962
 40
109.9550666193913
 40
137.440491663776
 40
164.9352831443544
 40
192.4180366196708
 40
219.9101260951808
 40
247.4017610079934
 40
274.8956707553411
 40
302.3842985330118
 40
329.8652112810635
 40
357.3506363254478
 40
384.8454278060252
 40
412.3281812813431
 40
439.8202707568535
 40
467.3119056696635
 40
494.8058154170109
 40
522.2944431946827
 40
549.7753559427337
 40
577.2607809871195
 40
604.7555724676981
 40
632.2383259430145
 40
659.7304154185252
 40
687.2220503313359
 40
714.7159600786838
 40
742.2045878563551
 40
769.6855006044068
 40
797.1709256487923
 40
824.6657171293699
 40
852.1484706046876
 40
879.6405600801984
 40
879.6405600801984
 40
879.6405600801984
 40
879.6405600801984
 10
140.0000000005521
 20
-0.0000185667149708
 30
0.0
 10
140.0004078053898
 20
-9.163918020976325
 30
0.0
 10
138.1944194105972
 20
-27.49226746565137
 30
0.0
 10
130.1746570608257
 20
-53.92691684113788
 30
0.0
 10
117.1529651416831
 20
-78.28553407702111
 30
0.0
 10
99.6317272801407
 20
-99.63384262041382
 30
0.0
 10
78.28162397611868
 20
-117.1562359952052
 30
0.0
 10
53.92195901494324
 20
-130.1759647592576
 30
0.0
 10
27.48925607806723
 20
-138.1956047753166
 30
0.0
 10
-0.0000802954182291
 20
-140.9019314174183
 30
0.0
 10
-27.492175347581
 20
-138.1952675994852
 30
0.0
 10
-53.92697059658713
 20
-130.1741390086343
 30
0.0
 10
-78.28550091688612
 20
-117.1532839944568
 30
0.0
 10
-99.63386305126642
 20
-99.63153087866999
 30
0.0
 10
-117.156223404817
 20
-78.28174500353202
 30
0.0
 10
-130.1759725149705
 20
-53.92188446203772
 30
0.0
 10
-138.1955999973525
 20
-27.4893020069394
 30
0.0
 10
-140.9019343612745
 20
0.0001085936175969
 30
0.0
 10
-138.1952657857773
 20
27.49215791311349
 30
0.0
 10
-130.1741401260242
 20
53.92698133759768
 30
0.0
 10
-117.1532833061847
 20
78.28549430084013
 30
0.0
 10
-99.63153130266346
 20
99.63386712687861
 30
0.0
 10
-78.28174474225762
 20
117.1562208932926
 30
0.0
 10
-53.92188462297872
 20
130.175974062071
 30
0.0
 10
-27.48930190778901
 20
138.1955990442473
 30
0.0
 10
0.0001085325311578
 20
140.9019349485079
 30
0.0
 10
27.49215795074724
 20
138.1952654239869
 30
0.0
 10
53.92698131441102
 20
130.1741403489139
 30
0.0
 10
78.28549431512602
 20
117.153283168899
 30
0.0
 10
99.63394752378554
 20
99.6316061575435
 30
0.0
 10
117.1558984336116
 20
78.28154887639107
 30
0.0
 10
130.176416694525
 20
53.92214983624149
 30
0.0
 10
138.1952207402119
 20
27.48900208423697
 30
0.0
 10
139.9993145385743
 20
9.163944759148535
 30
0.0
 10
140.0
 20
0.0
 30
0.0
  0
SPLINE
  5
A7
330
1F
100
AcDbEntity
  8
Table_Miura_9556-01_2D
 62
     9
100
AcDbSpline
210
0.0
220
0.0
230
1.0
 70
    11
 71
     3
 72
    39
 73
    35
 74
     0
 42
0.0000000001
 43
0.0000000001
 40
0.0
 40
0.0
 40
0.0
 40
0.0
 40
17.9813396320814
 40
35.96416715575467
 40
53.94353992342753
 40
71.91786655367333
 40
89.89514452286757
 40
107.8785487581382
 40
125.8540793452332
 40
143.835716291255
 40
161.8170559233361
 40
179.799883447011
 40
197.7792562146831
 40
215.753582844929
 40
233.7308608141237
 40
251.7142650493934
 40
269.6897956364883
 40
287.6714325825101
 40
305.6527722145917
 40
323.6355997382652
 40
341.6149725059374
 40
359.5892991361833
 40
377.5665771053784
 40
395.5499813406483
 40
413.5255119277423
 40
431.507148873765
 40
449.4884885058462
 40
467.4713160295195
 40
485.4506887971922
 40
503.4250154274388
 40
521.4022933966335
 40
539.3856976319031
 40
557.3612282189979
 40
575.3428651650202
 40
575.3428651650202
 40
575.3428651650202
 40
575.3428651650202
 10
91.56921938165306
 20
0.0
 30
0.0
 10
91.56948691079015
 20
-5.993797758919527
 30
0.0
 10
90.38825195473692
 20
-17.98174947099915
 30
0.0
 10
85.14279807375169
 20
-35.27175484858412
 30
0.0
 10
76.62575404482322
 20
-51.20389460220576
 30
0.0
 10
65.16571066203687
 20
-65.16709423389602
 30
0.0
 10
51.20133713873838
 20
-76.62789339838469
 30
0.0
 10
35.26851210376299
 20
-85.14365339470419
 30
0.0
 10
17.97978371751105
 20
-90.38902608036642
 30
0.0
 10
-0.00005251849052
 20
-92.15914192328682
 30
0.0
 10
-17.98169311200945
 20
-90.38880554516732
 30
0.0
 10
-35.27179000818796
 20
-85.14245923356793
 30
0.0
 10
-51.20387291329735
 20
-76.62596259549787
 30
0.0
 10
-65.167107597018
 20
-65.16558220256206
 30
0.0
 10
-76.62788516344699
 20
-51.20141629862292
 30
0.0
 10
-85.14365846744568
 20
-35.26846334125935
 30
0.0
 10
-90.38902295526532
 20
-17.97981375801464
 30
0.0
 10
-92.15914384876032
 20
0.0000710273777713
 30
0.0
 10
-90.38880435888223
 20
17.98168170872168
 30
0.0
 10
-85.14245996441696
 20
35.27179703351908
 30
0.0
 10
-76.62596214532005
 20
51.20386858596339
 30
0.0
 10
-65.16558247987996
 20
65.16711026274083
 30
0.0
 10
-51.2014161277275
 20
76.62788352073949
 30
0.0
 10
-35.26846344653131
 20
85.1436594793563
 30
0.0
 10
-17.97981369316312
 20
90.38902233186991
 30
0.0
 10
0.0000709874184395
 20
92.15914423285199
 30
0.0
 10
17.98168173334034
 20
90.38880412225035
 30
0.0
 10
35.27179701835485
 20
85.14246011019804
 30
0.0
 10
51.20386859530208
 20
76.62596205552768
 30
0.0
 10
65.1671628476197
 20
65.16563143990402
 30
0.0
 10
76.62767261086901
 20
51.2012880185564
 30
0.0
 10
85.14394899013223
 20
35.26863691346443
 30
0.0
 10
90.38877489611696
 20
17.9796175888157
 30
0.0
 10
91.56877104474279
 20
5.99382334322695
 30
0.0
 10
91.56921938165306
 20
0.0
 30
0.0
  0
SPLINE
  5
A8
330
1F
100
AcDbEntity
  8
Table_Miura_9556-01_2D
 62
     9
100
AcDbSpline
210
0.0
220
0.0
230
1.0
 70
    15
 71
     2
 72
    12
 73
     9
 74
     0
 42
0.0000000001
 43
0.0000000001
 40
0.0
 40
0.0
 40
0.0
 40
78.53981633974483
 40
78.53981633974483
 40
157.0796326794897
 40
157.0796326794897
 40
235.6194490192345
 40
235.6194490192345
 40
314.1592653589793
 40
314.1592653589793
 40
314.1592653589793
 10
50.0
 20
0.0
 30
0.0
 41
1.0
 10
49.99999999999962
 20
50.0
 30
0.0
 41
0.7071067811865476
 10
0.0
 20
50.0
 30
0.0
 41
1.0
 10
-49.99999999999925
 20
50.0
 30
0.0
 41
0.7071067811865476
 10
-50.0
 20
0.0
 30
0.0
 41
1.0
 10
-49.99999999999925
 20
-50.00000000000016
 30
0.0
 41
0.7071067811865476
 10
0.0
 20
-50.0
 30
0.0
 41
1.0
 10
49.99999999999962
 20
-50.00000000000016
 30
0.0
 41
0.7071067811865476
 10
50.0
 20
0.0
 30
0.0
 41
1.0
  0
POLYLINE
  5
A9
330
1F
100
AcDbEntity
  8
Table_Miura_9556-01_2D
100
AcDb2dPolyline
 66
     1
 10
0.0
 20
0.0
 30
0.0
  0
VERTEX
  5
AA
330
A9
100
AcDbEntity
  8
Table_Miura_9556-01_2D
100
AcDbVertex
100
AcDb2dVertex
 10
0.0000003117747838
 20
1582.656471559995
 30
0.0
  0
VERTEX
  5
AB
330
A9
100
AcDbEntity
  8
Table_Miura_9556-01_2D
100
AcDbVertex
100
AcDb2dVertex
 10
-0.000425033045758
 20
1520.106192397398
 30
0.0
  0
SEQEND
  5
AC
330
A9
100
AcDbEntity
  8
Table_Miura_9556-01_2D
  0
SPLINE
  5
AD
330
1F
100
AcDbEntity
  8
Table_Miura_9556-01_2D
100
AcDbSpline
210
0.0
220
0.0
230
1.0
 70
    12
 71
     2
 72
     6
 73
     3
 74
     0
 42
0.0000000001
 43
0.0000000001
 40
0.0
 40
0.0
 40
0.0
 40
0.0456162757198297
 40
0.0456162757198297
 40
0.0456162757198297
 10
-0.775321464825538
 20
1519.13174177768
 30
0.0
 41
1.0
 10
-0.797550102260843
 20
1519.126615402346
 30
0.0
 41
0.9997392900035
 10
-0.8199896032056131
 20
1519.122509206588
 30
0.0
 41
1.0
  0
LINE
  5
AE
330
1F
100
AcDbEntity
  8
Table_Miura_9556-01_2D
100
AcDbLine
 10
25.13000147152798
 20
1502.510573445786
 30
0.0
 11
25.130001471528
 21
1127.121261727098
 31
0.0
  0
LINE
  5
AF
330
1F
100
AcDbEntity
  8
Table_Miura_9556-01_2D
100
AcDbLine
 10
25.130001471528
 20
1127.121261727098
 30
0.0
 11
-25.13000084797839
 21
1127.121261727098
 31
0.0
  0
LINE
  5
B0
330
1F
100
AcDbEntity
  8
Table_Miura_9556-01_2D
100
AcDbLine
 10
-25.13000084797839
 20
1127.121261727098
 30
0.0
 11
-25.13000084797841
 21
1502.510573445786
 31
0.0
  0
SPLINE
  5
B1
330
1F
100
AcDbEntity
  8
Table_Miura_9556-01_2D
100
AcDbSpline
210
0.0
220
0.0
230
1.0
 70
    12
 71
     2
 72
     6
 73
     3
 74
     0
 42
0.0000000001
 43
0.0000000001
 40
0.0
 40
0.0
 40
0.0
 40
0.5308753252867442
 40
0.5308753252867442
 40
0.5308753252867442
 10
-7.886179102791175
 20
1517.454364840561
 30
0.0
 41
1.0
 10
-7.653744063973144
 20
1517.326177577062
 30
0.0
 41
0.9999907493369194
 10
-7.422420361133845
 20
1517.19599552646
 30
0.0
 41
1.0
  0
SPLINE
  5
B2
330
1F
100
AcDbEntity
  8
Table_Miura_9556-01_2D
100
AcDbSpline
210
0.0
220
0.0
230
1.0
 70
     8
 71
     3
 72
    13
 73
     9
 74
     0
 42
0.0000000001
 43
0.0000000001
 40
0.0
 40
0.0
 40
0.0
 40
0.0
 40
1.019225064702818
 40
2.012580360965314
 40
3.947692328443181
 40
4.933986289060289
 40
5.854459583978036
 40
7.77721457745443
 40
7.77721457745443
 40
7.77721457745443
 40
7.77721457745443
 10
-7.422420361133845
 20
1517.19599552646
 30
0.0
 10
-7.126279030012483
 20
1517.029531558908
 30
0.0
 10
-6.531881317252555
 20
1516.717722805282
 30
0.0
 10
-5.331226851916654
 20
1516.177924471686
 30
0.0
 10
-4.094687745448937
 20
1515.752973291897
 30
0.0
 10
-2.847898928927862
 20
1515.457213624394
 30
0.0
 10
-1.588632730843528
 20
1515.244305406921
 30
0.0
 10
-0.6409022308007479
 20
1515.179841803196
 30
0.0
 10
0.0000003117747838
 20
1515.179305857962
 30
0.0
  0
SPLINE
  5
B3
330
1F
100
AcDbEntity
  8
Table_Miura_9556-01_2D
100
AcDbSpline
210
0.0
220
0.0
230
1.0
 70
     8
 71
     3
 72
    13
 73
     9
 74
     0
 42
0.0000000001
 43
0.0000000001
 40
0.0
 40
0.0
 40
0.0
 40
0.0
 40
0.9782337425002418
 40
1.922754993476621
 40
2.84322828839396
 40
3.829522249011025
 40
5.764634216489107
 40
7.777214577453913
 40
7.777214577453913
 40
7.777214577453913
 40
7.777214577453913
 10
0.0000003117747838
 20
1515.179305857962
 30
0.0
 10
0.3260856012229851
 20
1515.179458714431
 30
0.0
 10
0.9669617714935157
 20
1515.20213929311
 30
0.0
 10
1.910313667173796
 20
1515.298633720221
 30
0.0
 10
2.847898933217039
 20
1515.457230668359
 30
0.0
 10
4.094684466070248
 20
1515.752978603924
 30
0.0
 10
5.653178666751046
 20
1516.288523210384
 30
0.0
 10
6.837687144806296
 20
1516.867170783931
 30
0.0
 10
7.422420984683868
 20
1517.19599552646
 30
0.0
  0
SPLINE
  5
B4
330
1F
100
AcDbEntity
  8
Table_Miura_9556-01_2D
100
AcDbSpline
210
0.0
220
0.0
230
1.0
 70
    12
 71
     2
 72
     6
 73
     3
 74
     0
 42
0.0000000001
 43
0.0000000001
 40
0.0
 40
0.0
 40
0.0
 40
0.5308753252869439
 40
0.5308753252869439
 40
0.5308753252869439
 10
7.422420984683868
 20
1517.19599552646
 30
0.0
 41
1.0
 10
7.653744687522841
 20
1517.326177577062
 30
0.0
 41
0.9999907493369284
 10
7.886179726341652
 20
1517.454364840561
 30
0.0
 41
1.0
  0
SPLINE
  5
B5
330
1F
100
AcDbEntity
  8
Table_Miura_9556-01_2D
100
AcDbSpline
210
0.0
220
0.0
230
1.0
 70
    12
 71
     2
 72
     6
 73
     3
 74
     0
 42
0.0000000001
 43
0.0000000001
 40
0.0
 40
0.0
 40
0.0
 40
1.53375001570948
 40
1.53375001570948
 40
1.53375001570948
 10
0.9629671210223023
 20
1583.655806504595
 30
0.0
 41
1.0
 10
0.0000404772078434
 20
1583.620061426264
 30
0.0
 41
0.7201171409990421
 10
0.0000003117747838
 20
1582.656471559995
 30
0.0
 41
1.0
  0
SPLINE
  5
B6
330
1F
100
AcDbEntity
  8
Table_Miura_9556-01_2D
100
AcDbSpline
210
0.0
220
0.0
230
1.0
 70
    12
 71
     2
 72
     6
 73
     3
 74
     0
 42
0.0000000001
 43
0.0000000001
 40
0.0
 40
0.0
 40
0.0
 40
1.53375019001792
 40
1.53375019001792
 40
1.53375019001792
 10
0.0000003117747838
 20
1582.656471559995
 30
0.0
 41
1.0
 10
-0.0000398534440044
 20
1583.62006159456
 30
0.0
 41
0.7201170802944139
 10
-0.9629666716837164
 20
1583.655806510865
 30
0.0
 41
1.0
  0
SPLINE
  5
B7
330
1F
100
AcDbEntity
  8
Table_Miura_9556-01_2D
100
AcDbSpline
210
0.0
220
0.0
230
1.0
 70
     8
 71
     3
 72
    13
 73
     9
 74
     0
 42
0.0000000001
 43
0.0000000001
 40
0.0
 40
0.0
 40
0.0
 40
0.0
 40
0.0842084935809858
 40
0.1523207872208179
 40
0.275918593398183
 40
0.3976132335562294
 40
0.4611173083935368
 40
0.5436834943217632
 40
0.5436834943217632
 40
0.5436834943217632
 40
0.5436834943217632
 10
-350.7235511862353
 20
1127.121167065002
 30
0.0
 10
-350.6955798370917
 20
1127.121135164938
 30
0.0
 10
-350.644416411118
 20
1127.117804440668
 30
0.0
 10
-350.5557854438365
 20
1127.092629396946
 30
0.0
 10
-350.4737322272821
 20
1127.017054894305
 30
0.0
 10
-350.4657905451612
 20
1126.907084641168
 30
0.0
 10
-350.5052259973198
 20
1126.825942413757
 30
0.0
 10
-350.5363767382804
 20
1126.788331269959
 30
0.0
 10
-350.5546289198718
 20
1126.767694677607
 30
0.0
  0
SPLINE
  5
B8
330
1F
100
AcDbEntity
  8
Table_Miura_9556-01_2D
100
AcDbSpline
210
0.0
220
0.0
230
1.0
 70
    24
 71
     2
 72
     6
 73
     3
 74
     0
 42
0.0000000001
 43
0.0000000001
 40
0.0
 40
0.0
 40
0.0
 40
0.5244136134753632
 40
0.5244136134753632
 40
0.5244136134753632
 10
-350.5546289198718
 20
1126.767694677607
 30
0.0
 10
-350.7264003542131
 20
1126.569350203755
 30
0.0
 10
-350.8981717885544
 20
1126.371005729903
 30
0.0
  0
SPLINE
  5
B9
330
1F
100
AcDbEntity
  8
Table_Miura_9556-01_2D
100
AcDbSpline
210
0.0
220
0.0
230
1.0
 70
     8
 71
     3
 72
    12
 73
     8
 74
     0
 42
0.0000000001
 43
0.0000000001
 40
0.0
 40
0.0
 40
0.0
 40
0.0
 40
0.215147148445352
 40
0.4344126759933203
 40
1.014845999299492
 40
1.738325432821743
 40
2.240259627195612
 40
2.240259627195612
 40
2.240259627195612
 40
2.240259627195612
 10
-350.8981717885544
 20
1126.371005729903
 30
0.0
 10
-350.9452226461425
 20
1126.316444261733
 30
0.0
 10
-351.0410394899126
 20
1126.207815457713
 30
0.0
 10
-351.2773715789189
 20
1125.965656183087
 30
0.0
 10
-351.6493771366703
 20
1125.619905959973
 30
0.0
 10
-352.1031787235032
 20
1125.22440068306
 30
0.0
 10
-352.4213907050333
 20
1124.967999157018
 30
0.0
 10
-352.5581931516352
 20
1124.871121752927
 30
0.0
  0
SPLINE
  5
BA
330
1F
100
AcDbEntity
  8
Table_Miura_9556-01_2D
100
AcDbSpline
210
0.0
220
0.0
230
1.0
 70
     8
 71
     3
 72
    11
 73
     7
 74
     0
 42
0.0000000001
 43
0.0000000001
 40
0.0
 40
0.0
 40
0.0
 40
0.0
 40
2.849025153143939
 40
5.681848556468799
 40
11.31563454753918
 40
22.64754464670963
 40
22.64754464670963
 40
22.64754464670963
 40
22.64754464670963
 10
-352.5581931516352
 20
1124.871121752927
 30
0.0
 10
-353.3305213905595
 20
1124.318214724469
 30
0.0
 10
-354.9131413805088
 20
1123.274903576959
 30
0.0
 10
-358.2148693799417
 20
1121.446049159469
 30
0.0
 10
-364.3365109364439
 20
1118.926925631825
 30
0.0
 10
-369.9905098064008
 20
1118.033676829415
 30
0.0
 10
-373.7679656526951
 20
1118.034012076493
 30
0.0
  0
SPLINE
  5
BB
330
1F
100
AcDbEntity
  8
Table_Miura_9556-01_2D
100
AcDbSpline
210
0.0
220
0.0
230
1.0
 70
     8
 71
     5
 72
    12
 73
     6
 74
     0
 42
0.0000000001
 43
0.0000000001
 40
-1.0
 40
-1.0
 40
-1.0
 40
-1.0
 40
-1.0
 40
-1.0
 40
0.0
 40
0.0
 40
0.0
 40
0.0
 40
0.0
 40
0.0
 10
-373.7679656526951
 20
1118.034012076493
 30
0.0
 10
-373.8368971063254
 20
1118.034018194121
 30
0.0
 10
-373.9058285452537
 20
1118.034189966009
 30
0.0
 10
-373.9747607236367
 20
1118.034518910539
 30
0.0
 10
-374.0436906266867
 20
1118.035010203339
 30
0.0
 10
-374.1126189465057
 20
1118.035667519048
 30
0.0
  0
SPLINE
  5
BC
330
1F
100
AcDbEntity
  8
Table_Miura_9556-01_2D
100
AcDbSpline
210
0.0
220
0.0
230
1.0
 70
     8
 71
     3
 72
    12
 73
     8
 74
     0
 42
0.0000000001
 43
0.0000000001
 40
0.0
 40
0.0
 40
0.0
 40
0.0
 40
2.765242495116512
 40
5.467131183712467
 40
11.12386283924205
 40
16.6939552205985
 40
22.3034199774177
 40
22.3034199774177
 40
22.3034199774177
 40
22.3034199774177
 10
-374.1126189465057
 20
1118.035667519048
 30
0.0
 10
-375.0343307348393
 20
1118.044457166591
 30
0.0
 10
-376.8559144748141
 20
1118.132266664232
 30
0.0
 10
-380.5383343521215
 20
1118.587758027206
 30
0.0
 10
-385.063863141875
 20
1119.68704572813
 30
0.0
 10
-390.2631654950736
 20
1121.842849503234
 30
0.0
 10
-393.4575627900266
 20
1123.782926920768
 30
0.0
 10
-394.978126481982
 20
1124.871199836297
 30
0.0
  0
SPLINE
  5
BD
330
1F
100
AcDbEntity
  8
Table_Miura_9556-01_2D
100
AcDbSpline
210
0.0
220
0.0
230
1.0
 70
     8
 71
     3
 72
    16
 73
    12
 74
     0
 42
0.0000000001
 43
0.0000000001
 40
0.0
 40
0.0
 40
0.0
 40
0.0
 40
0.1450445684408275
 40
0.2674563255525638
 40
0.5165020686838145
 40
0.7647651081847263
 40
0.9971024939488223
 40
1.19489142016583
 40
1.37708050099132
 40
1.556352254818322
 40
1.789706299665248
 40
1.789706299665248
 40
1.789706299665248
 40
1.789706299665248
 10
-394.978126481982
 20
1124.871199836297
 30
0.0
 10
-395.01757178982
 20
1124.899341475844
 30
0.0
 10
-395.0897163250737
 20
1124.951800448039
 30
0.0
 10
-395.220317598233
 20
1125.064247517759
 30
0.0
 10
-395.3587075577969
 20
1125.218600847821
 30
0.0
 10
-395.4885677900028
 20
1125.425360902649
 30
0.0
 10
-395.5707072340409
 20
1125.637409284009
 30
0.0
 10
-395.5976918436126
 20
1125.841494091898
 30
0.0
 10
-395.568323042612
 20
1126.027814612634
 30
0.0
 10
-395.4797958358621
 20
1126.207362881456
 30
0.0
 10
-395.3900442331022
 20
1126.312485203942
 30
0.0
 10
-395.3390113772783
 20
1126.371198477325
 30
0.0
  0
SPLINE
  5
BE
330
1F
100
AcDbEntity
  8
Table_Miura_9556-01_2D
100
AcDbSpline
210
0.0
220
0.0
230
1.0
 70
    24
 71
     2
 72
     6
 73
     3
 74
     0
 42
0.0000000001
 43
0.0000000001
 40
0.0
 40
0.0
 40
0.0
 40
0.5244495011189884
 40
0.5244495011189884
 40
0.5244495011189884
 10
-395.3390113772783
 20
1126.371198477325
 30
0.0
 10
-395.1672549242948
 20
1126.569526496097
 30
0.0
 10
-394.9954984713112
 20
1126.76785451487
 30
0.0
  0
SPLINE
  5
BF
330
1F
100
AcDbEntity
  8
Table_Miura_9556-01_2D
100
AcDbSpline
210
0.0
220
0.0
230
1.0
 70
     8
 71
     3
 72
    12
 73
     8
 74
     0
 42
0.0000000001
 43
0.0000000001
 40
0.0
 40
0.0
 40
0.0
 40
0.0
 40
0.0890023797843848
 40
0.1797960093845599
 40
0.411193526615116
 40
0.6556287843923315
 40
0.8529811660911646
 40
0.8529811660911646
 40
0.8529811660911646
 40
0.8529811660911646
 10
-394.9954984713112
 20
1126.76785451487
 30
0.0
 10
-394.9761865093204
 20
1126.790582319214
 30
0.0
 10
-394.935392832468
 20
1126.834710380489
 30
0.0
 10
-394.8267161905541
 20
1126.918962895681
 30
0.0
 10
-394.6601950099983
 20
1127.009220079103
 30
0.0
 10
-394.4506883616449
 20
1127.091020289161
 30
0.0
 10
-394.3051693777142
 20
1127.11886914306
 30
0.0
 10
-394.2392794943206
 20
1127.120652967506
 30
0.0
  0
SPLINE
  5
C0
330
1F
100
AcDbEntity
  8
Table_Miura_9556-01_2D
100
AcDbSpline
210
0.0
220
0.0
230
1.0
 70
     8
 71
     3
 72
    13
 73
     9
 74
     0
 42
0.0000000001
 43
0.0000000001
 40
0.0
 40
0.0
 40
0.0
 40
0.0
 40
0.0902185093720015
 40
0.1761896831588625
 40
0.3455633168783852
 40
0.4948657949572023
 40
0.556563259372795
 40
0.627356624861584
 40
0.627356624861584
 40
0.627356624861584
 40
0.627356624861584
 10
24.55885381686953
 20
1127.120541918404
 30
0.0
 10
24.58893150645331
 20
1127.119485174743
 30
0.0
 10
24.64749837356162
 20
1127.114321665397
 30
0.0
 10
24.75960680516623
 20
1127.085403825506
 30
0.0
 10
24.87975929685221
 20
1127.021172867835
 30
0.0
 10
24.96742215826912
 20
1126.925690224734
 30
0.0
 10
24.99927343375661
 20
1126.835760384657
 30
0.0
 10
25.00003015807583
 20
1126.791270097284
 30
0.0
 10
25.00001907960272
 20
1126.767708259098
 30
0.0
  0
SPLINE
  5
C1
330
1F
100
AcDbEntity
  8
Table_Miura_9556-01_2D
100
AcDbSpline
210
0.0
220
0.0
230
1.0
 70
    24
 71
     2
 72
     6
 73
     3
 74
     0
 42
0.0000000001
 43
0.0000000001
 40
0.0
 40
0.0
 40
0.0
 40
0.3964465280207605
 40
0.3964465280207605
 40
0.3964465280207605
 10
25.00001907960272
 20
1126.767708259098
 30
0.0
 10
25.00000569650369
 20
1126.569484995176
 30
0.0
 10
24.99999231340466
 20
1126.371261731254
 30
0.0
  0
SPLINE
  5
C2
330
1F
100
AcDbEntity
  8
Table_Miura_9556-01_2D
100
AcDbSpline
210
0.0
220
0.0
230
1.0
 70
     8
 71
     3
 72
    17
 73
    13
 74
     0
 42
0.0000000001
 43
0.0000000001
 40
0.0
 40
0.0
 40
0.0
 40
0.0
 40
0.096206427153708
 40
0.1738289297860724
 40
0.3373064891875309
 40
0.5367070411388807
 40
0.7755987407383814
 40
1.076140845210542
 40
1.39684904123019
 40
1.692620935227463
 40
1.823404523224021
 40
1.966221085738925
 40
1.966221085738925
 40
1.966221085738925
 40
1.966221085738925
 10
24.99999231340466
 20
1126.371261731254
 30
0.0
 10
25.00007599933274
 20
1126.339179106105
 30
0.0
 10
24.99963648657017
 20
1126.281243420735
 30
0.0
 10
24.98693521240243
 20
1126.16923665006
 30
0.0
 10
24.94391938789981
 20
1126.027979946021
 30
0.0
 10
24.85004070244217
 20
1125.849994612789
 30
0.0
 10
24.70778194457402
 20
1125.648571737782
 30
0.0
 10
24.51994455287517
 20
1125.431541012181
 30
0.0
 10
24.30192289182564
 20
1125.217013467651
 30
0.0
 10
24.11124786000623
 20
1125.056372555568
 30
0.0
 10
23.95722399971423
 20
1124.945327287956
 30
0.0
 10
23.88020793376749
 20
1124.896427254755
 30
0.0
 10
23.83975727332567
 20
1124.871232163368
 30
0.0
  0
SPLINE
  5
C3
330
1F
100
AcDbEntity
  8
Table_Miura_9556-01_2D
100
AcDbSpline
210
0.0
220
0.0
230
1.0
 70
    24
 71
     2
 72
     6
 73
     3
 74
     0
 42
0.0000000001
 43
0.0000000001
 40
0.0
 40
0.0
 40
0.0
 40
0.0002289742124082
 40
0.0002289742124082
 40
0.0002289742124082
 10
23.83975727332567
 20
1124.871232163368
 30
0.0
 10
23.83939661441222
 20
1124.871005981771
 30
0.0
 10
23.83903595549877
 20
1124.870779800174
 30
0.0
  0
SPLINE
  5
C4
330
1F
100
AcDbEntity
  8
Table_Miura_9556-01_2D
100
AcDbSpline
210
0.0
220
0.0
230
1.0
 70
     8
 71
     3
 72
    25
 73
    21
 74
     0
 42
0.0000000001
 43
0.0000000001
 40
0.0
 40
0.0
 40
0.0
 40
0.0
 40
3.199464847565258
 40
6.339105644558495
 40
12.50811986083845
 40
18.76914410145589
 40
21.92709824290088
 40
23.5426726790446
 40
24.35047809908063
 40
24.73600031715062
 40
24.93791509714551
 40
25.02970318784148
 40
25.08478241549296
 40
25.10542804074601
 40
25.11450266261522
 40
25.12044633183926
 40
25.1237624889977
 40
25.12411320300106
 40
25.12426471033862
 40
25.12576885809665
 40
25.12576885809665
 40
25.12576885809665
 40
25.12576885809665
 10
23.83903595549877
 20
1124.870779800174
 30
0.0
 10
22.93409061299103
 20
1124.305381357805
 30
0.0
 10
21.10216963154657
 20
1123.249714196999
 30
0.0
 10
17.35060767958662
 20
1121.424782251558
 30
0.0
 10
12.46235462658392
 20
1119.645293592064
 30
0.0
 10
7.369079324375932
 20
1118.555444758632
 30
0.0
 10
3.709330417430508
 20
1118.165954636881
 30
0.0
 10
1.851280898302363
 20
1118.066586162507
 30
0.0
 10
0.9152639214017171
 20
1118.042029466475
 30
0.0
 10
0.4502290392420462
 20
1118.035935248131
 30
0.0
 10
0.2238244808968801
 20
1118.034495066929
 30
0.0
 10
0.1075669070442444
 20
1118.034117957623
 30
0.0
 10
0.0517292836730547
 20
1118.034037680755
 30
0.0
 10
0.0234633573991658
 20
1118.034016928211
 30
0.0
 10
0.0115754177405022
 20
1118.034013518145
 30
0.0
 10
0.0055053786809793
 20
1118.034012261328
 30
0.0
 10
0.0021275729605321
 20
1118.034012201987
 30
0.0
 10
0.0015005478117444
 20
1118.034012041941
 30
0.0
 10
0.0014900110636943
 20
1118.034012126538
 30
0.0
 10
0.0007269131547644
 20
1118.034012107162
 30
0.0
 10
0.0002385766784271
 20
1118.034012109632
 30
0.0
  0
SPLINE
  5
C5
330
1F
100
AcDbEntity
  8
Table_Miura_9556-01_2D
100
AcDbSpline
210
0.0
220
0.0
230
1.0
 70
     8
 71
     3
 72
    24
 73
    20
 74
     0
 42
0.0000000001
 43
0.0000000001
 40
0.0
 40
0.0
 40
0.0
 40
0.0
 40
0.0020036009973828
 40
0.0022547111946161
 40
0.0025058213907338
 40
0.0056257993892326
 40
0.0112405324588038
 40
0.0196887687594485
 40
0.0391810618505631
 40
0.0782064054519545
 40
0.1883614775428985
 40
0.3719392572588333
 40
0.7758219388728826
 40
1.546888493387028
 40
3.125770128814666
 40
6.302017912357493
 40
12.52633999402473
 40
18.76876323823666
 40
25.12637023077661
 40
25.12637023077661
 40
25.12637023077661
 40
25.12637023077661
 10
0.0002385766784271
 20
1118.034012109632
 30
0.0
 10
-0.0004313882618164
 20
1118.03401210722
 30
0.0
 10
-0.0013814655403195
 20
1118.034012135061
 30
0.0
 10
-0.0015540261446887
 20
1118.034012044438
 30
0.0
 10
-0.0017514286400485
 20
1118.034012168482
 30
0.0
 10
-0.0056047590932878
 20
1118.03401233405
 30
0.0
 10
-0.0107352989270595
 20
1118.034013171152
 30
0.0
 10
-0.0223819561778811
 20
1118.034016897224
 30
0.0
 10
-0.0441539371731353
 20
1118.034030838256
 30
0.0
 10
-0.1008786728361458
 20
1118.034103311579
 30
0.0
 10
-0.2114962550239881
 20
1118.034431023254
 30
0.0
 10
-0.4441854836895374
 20
1118.035882363049
 30
0.0
 10
-0.8969076456559861
 20
1118.041682519023
 30
0.0
 10
-1.814613149635946
 20
1118.065474352034
 30
0.0
 10
-3.654403157882328
 20
1118.161485530091
 30
0.0
 10
-7.296441314317192
 20
1118.544009001787
 30
0.0
 10
-12.40936913035689
 20
1119.62911138954
 30
0.0
 10
-18.32235610084076
 20
1121.773672240311
 30
0.0
 10
-22.04132580201527
 20
1123.74785087815
 30
0.0
 10
-23.83922918809454
 20
1124.870902557221
 30
0.0
  0
SPLINE
  5
C6
330
1F
100
AcDbEntity
  8
Table_Miura_9556-01_2D
100
AcDbSpline
210
0.0
220
0.0
230
1.0
 70
     8
 71
     3
 72
    17
 73
    13
 74
     0
 42
0.0000000001
 43
0.0000000001
 40
0.0
 40
0.0
 40
0.0
 40
0.0
 40
0.1433371388019954
 40
0.2741217048581911
 40
0.5698915548391688
 40
0.8911637673394632
 40
1.191151497005835
 40
1.428512647803872
 40
1.628463248151064
 40
1.79281401023468
 40
1.87084582755943
 40
1.966221106772802
 40
1.966221106772802
 40
1.966221106772802
 40
1.966221106772802
 10
-23.83922918809454
 20
1124.870902557221
 30
0.0
 10
-23.88035561909506
 20
1124.896517192406
 30
0.0
 10
-23.95751269938951
 20
1124.94552052686
 30
0.0
 10
-24.11165639704537
 20
1125.056694716788
 30
0.0
 10
-24.30244871973532
 20
1125.21748831655
 30
0.0
 10
-24.52043363332901
 20
1125.432056597816
 30
0.0
 10
-24.70789076932574
 20
1125.648748533254
 30
0.0
 10
-24.84985039086764
 20
1125.849746473935
 30
0.0
 10
-24.94381514257744
 20
1126.027650161337
 30
0.0
 10
-24.98705086623154
 20
1126.169482568602
 30
0.0
 10
-24.99963398884297
 20
1126.28166768332
 30
0.0
 10
-25.00009268066056
 20
1126.33944486232
 30
0.0
 10
-24.99999168985501
 20
1126.371261731254
 30
0.0
  0
SPLINE
  5
C7
330
1F
100
AcDbEntity
  8
Table_Miura_9556-01_2D
100
AcDbSpline
210
0.0
220
0.0
230
1.0
 70
    24
 71
     2
 72
     6
 73
     3
 74
     0
 42
0.0000000001
 43
0.0000000001
 40
0.0
 40
0.0
 40
0.0
 40
0.3964465280207605
 40
0.3964465280207605
 40
0.3964465280207605
 10
-24.99999168985501
 20
1126.371261731254
 30
0.0
 10
-25.00000507295404
 20
1126.569484995176
 30
0.0
 10
-25.00001845605307
 20
1126.767708259098
 30
0.0
  0
SPLINE
  5
C8
330
1F
100
AcDbEntity
  8
Table_Miura_9556-01_2D
100
AcDbSpline
210
0.0
220
0.0
230
1.0
 70
     8
 71
     3
 72
    12
 73
     8
 74
     0
 42
0.0000000001
 43
0.0000000001
 40
0.0
 40
0.0
 40
0.0
 40
0.0
 40
0.0709674213477591
 40
0.1335862693837825
 40
0.2813937667596485
 40
0.4525062216997117
 40
0.627356896276153
 40
0.627356896276153
 40
0.627356896276153
 40
0.627356896276153
 10
-25.00001845605307
 20
1126.767708259098
 30
0.0
 10
-25.00012779214462
 20
1126.791327054024
 30
0.0
 10
-24.99914452395747
 20
1126.836182884055
 30
0.0
 10
-24.96723534956523
 20
1126.925962754218
 30
0.0
 10
-24.87928072717564
 20
1127.021414897563
 30
0.0
 10
-24.73241757828596
 20
1127.100123128615
 30
0.0
 10
-24.61702595617403
 20
1127.119055352462
 30
0.0
 10
-24.55885293653041
 20
1127.120535971809
 30
0.0
  0
SPLINE
  5
C9
330
1F
100
AcDbEntity
  8
Table_Miura_9556-01_2D
100
AcDbSpline
210
0.0
220
0.0
230
1.0
 70
     8
 71
     3
 72
    13
 73
     9
 74
     0
 42
0.0000000001
 43
0.0000000001
 40
0.0
 40
0.0
 40
0.0
 40
0.0
 40
0.0842084935809858
 40
0.1523207872208179
 40
0.275918593398183
 40
0.3976132335562294
 40
0.4611173083935368
 40
0.5436834943217632
 40
0.5436834943217632
 40
0.5436834943217632
 40
0.5436834943217632
 10
350.7233391720974
 20
1127.121167065002
 30
0.0
 10
350.6953678229538
 20
1127.121135164938
 30
0.0
 10
350.64420439698
 20
1127.117804440668
 30
0.0
 10
350.5555734296985
 20
1127.092629396946
 30
0.0
 10
350.4735202131441
 20
1127.017054894305
 30
0.0
 10
350.4655785310233
 20
1126.907084641168
 30
0.0
 10
350.5050139831819
 20
1126.825942413757
 30
0.0
 10
350.5361647241425
 20
1126.788331269959
 30
0.0
 10
350.5544169057338
 20
1126.767694677607
 30
0.0
  0
SPLINE
  5
CA
330
1F
100
AcDbEntity
  8
Table_Miura_9556-01_2D
100
AcDbSpline
210
0.0
220
0.0
230
1.0
 70
    24
 71
     2
 72
     6
 73
     3
 74
     0
 42
0.0000000001
 43
0.0000000001
 40
0.0
 40
0.0
 40
0.0
 40
0.5244136134753632
 40
0.5244136134753632
 40
0.5244136134753632
 10
350.5544169057338
 20
1126.767694677607
 30
0.0
 10
350.7261883400751
 20
1126.569350203755
 30
0.0
 10
350.8979597744164
 20
1126.371005729903
 30
0.0
  0
SPLINE
  5
CB
330
1F
100
AcDbEntity
  8
Table_Miura_9556-01_2D
100
AcDbSpline
210
0.0
220
0.0
230
1.0
 70
     8
 71
     3
 72
    12
 73
     8
 74
     0
 42
0.0000000001
 43
0.0000000001
 40
0.0
 40
0.0
 40
0.0
 40
0.0
 40
0.215147148445352
 40
0.4344126759933203
 40
1.014845999299492
 40
1.738325432821743
 40
2.240259627195612
 40
2.240259627195612
 40
2.240259627195612
 40
2.240259627195612
 10
350.8979597744164
 20
1126.371005729903
 30
0.0
 10
350.9450106320045
 20
1126.316444261733
 30
0.0
 10
351.0408274757746
 20
1126.207815457713
 30
0.0
 10
351.2771595647809
 20
1125.965656183087
 30
0.0
 10
351.6491651225323
 20
1125.619905959973
 30
0.0
 10
352.1029667093653
 20
1125.22440068306
 30
0.0
 10
352.4211786908954
 20
1124.967999157018
 30
0.0
 10
352.5579811374973
 20
1124.871121752927
 30
0.0
  0
SPLINE
  5
CC
330
1F
100
AcDbEntity
  8
Table_Miura_9556-01_2D
100
AcDbSpline
210
0.0
220
0.0
230
1.0
 70
     8
 71
     3
 72
    11
 73
     7
 74
     0
 42
0.0000000001
 43
0.0000000001
 40
0.0
 40
0.0
 40
0.0
 40
0.0
 40
2.849025153143939
 40
5.681848556468799
 40
11.31563454753918
 40
22.64754464670963
 40
22.64754464670963
 40
22.64754464670963
 40
22.64754464670963
 10
352.5579811374973
 20
1124.871121752927
 30
0.0
 10
353.3303093764216
 20
1124.318214724469
 30
0.0
 10
354.9129293663709
 20
1123.274903576959
 30
0.0
 10
358.2146573658037
 20
1121.446049159469
 30
0.0
 10
364.336298922306
 20
1118.926925631825
 30
0.0
 10
369.9902977922629
 20
1118.033676829415
 30
0.0
 10
373.7677536385572
 20
1118.034012076493
 30
0.0
  0
SPLINE
  5
CD
330
1F
100
AcDbEntity
  8
Table_Miura_9556-01_2D
100
AcDbSpline
210
0.0
220
0.0
230
1.0
 70
     8
 71
     5
 72
    12
 73
     6
 74
     0
 42
0.0000000001
 43
0.0000000001
 40
-1.0
 40
-1.0
 40
-1.0
 40
-1.0
 40
-1.0
 40
-1.0
 40
0.0
 40
0.0
 40
0.0
 40
0.0
 40
0.0
 40
0.0
 10
373.7677536385572
 20
1118.034012076493
 30
0.0
 10
373.8366850921875
 20
1118.034018194121
 30
0.0
 10
373.9056165311158
 20
1118.034189966009
 30
0.0
 10
373.9745487094987
 20
1118.034518910539
 30
0.0
 10
374.0434786125488
 20
1118.035010203339
 30
0.0
 10
374.1124069323677
 20
1118.035667519048
 30
0.0
  0
SPLINE
  5
CE
330
1F
100
AcDbEntity
  8
Table_Miura_9556-01_2D
100
AcDbSpline
210
0.0
220
0.0
230
1.0
 70
     8
 71
     3
 72
    12
 73
     8
 74
     0
 42
0.0000000001
 43
0.0000000001
 40
0.0
 40
0.0
 40
0.0
 40
0.0
 40
2.765242495116512
 40
5.467131183712467
 40
11.12386283924205
 40
16.6939552205985
 40
22.3034199774177
 40
22.3034199774177
 40
22.3034199774177
 40
22.3034199774177
 10
374.1124069323677
 20
1118.035667519048
 30
0.0
 10
375.0341187207013
 20
1118.044457166591
 30
0.0
 10
376.8557024606761
 20
1118.132266664232
 30
0.0
 10
380.5381223379836
 20
1118.587758027206
 30
0.0
 10
385.063651127737
 20
1119.68704572813
 30
0.0
 10
390.2629534809357
 20
1121.842849503234
 30
0.0
 10
393.4573507758886
 20
1123.782926920768
 30
0.0
 10
394.9779144678441
 20
1124.871199836297
 30
0.0
  0
SPLINE
  5
CF
330
1F
100
AcDbEntity
  8
Table_Miura_9556-01_2D
100
AcDbSpline
210
0.0
220
0.0
230
1.0
 70
     8
 71
     3
 72
    16
 73
    12
 74
     0
 42
0.0000000001
 43
0.0000000001
 40
0.0
 40
0.0
 40
0.0
 40
0.0
 40
0.1450445684408275
 40
0.2674563255525638
 40
0.5165020686838145
 40
0.7647651081847263
 40
0.9971024939488223
 40
1.19489142016583
 40
1.37708050099132
 40
1.556352254818322
 40
1.789706299665248
 40
1.789706299665248
 40
1.789706299665248
 40
1.789706299665248
 10
394.9779144678441
 20
1124.871199836297
 30
0.0
 10
395.017359775682
 20
1124.899341475844
 30
0.0
 10
395.0895043109358
 20
1124.951800448039
 30
0.0
 10
395.2201055840951
 20
1125.064247517759
 30
0.0
 10
395.358495543659
 20
1125.218600847821
 30
0.0
 10
395.4883557758648
 20
1125.425360902649
 30
0.0
 10
395.570495219903
 20
1125.637409284009
 30
0.0
 10
395.5974798294746
 20
1125.841494091898
 30
0.0
 10
395.568111028474
 20
1126.027814612634
 30
0.0
 10
395.4795838217241
 20
1126.207362881456
 30
0.0
 10
395.3898322189643
 20
1126.312485203942
 30
0.0
 10
395.3387993631404
 20
1126.371198477325
 30
0.0
  0
SPLINE
  5
D0
330
1F
100
AcDbEntity
  8
Table_Miura_9556-01_2D
100
AcDbSpline
210
0.0
220
0.0
230
1.0
 70
    24
 71
     2
 72
     6
 73
     3
 74
     0
 42
0.0000000001
 43
0.0000000001
 40
0.0
 40
0.0
 40
0.0
 40
0.5244495011189884
 40
0.5244495011189884
 40
0.5244495011189884
 10
395.3387993631404
 20
1126.371198477325
 30
0.0
 10
395.1670429101568
 20
1126.569526496097
 30
0.0
 10
394.9952864571732
 20
1126.76785451487
 30
0.0
  0
SPLINE
  5
D1
330
1F
100
AcDbEntity
  8
Table_Miura_9556-01_2D
100
AcDbSpline
210
0.0
220
0.0
230
1.0
 70
     8
 71
     3
 72
    12
 73
     8
 74
     0
 42
0.0000000001
 43
0.0000000001
 40
0.0
 40
0.0
 40
0.0
 40
0.0
 40
0.0890023797843848
 40
0.1797960093845599
 40
0.411193526615116
 40
0.6556287843923315
 40
0.8529811660911646
 40
0.8529811660911646
 40
0.8529811660911646
 40
0.8529811660911646
 10
394.9952864571732
 20
1126.76785451487
 30
0.0
 10
394.9759744951825
 20
1126.790582319214
 30
0.0
 10
394.93518081833
 20
1126.834710380489
 30
0.0
 10
394.8265041764161
 20
1126.918962895681
 30
0.0
 10
394.6599829958604
 20
1127.009220079103
 30
0.0
 10
394.4504763475069
 20
1127.091020289161
 30
0.0
 10
394.3049573635762
 20
1127.11886914306
 30
0.0
 10
394.2390674801827
 20
1127.120652967506
 30
0.0
  0
LINE
  5
D2
330
1F
100
AcDbEntity
  8
Table_Miura_9556-01_2D
100
AcDbLine
 10
350.2266926853362
 20
1127.120804472941
 30
0.0
 11
23.14230298066104
 21
1504.805278818868
 31
0.0
  0
SPLINE
  5
D3
330
1F
100
AcDbEntity
  8
Table_Miura_9556-01_2D
100
AcDbSpline
210
0.0
220
0.0
230
1.0
 70
     8
 71
     5
 72
    12
 73
     6
 74
     0
 42
0.0000000001
 43
0.0000000001
 40
-1.0
 40
-1.0
 40
-1.0
 40
-1.0
 40
-1.0
 40
-1.0
 40
0.0
 40
0.0
 40
0.0
 40
0.0
 40
0.0
 40
0.0
 10
23.14230298066104
 20
1504.805278818868
 30
0.0
 10
23.13944100143999
 20
1504.808583547407
 30
0.0
 10
23.13657902221894
 20
1504.811888275947
 30
0.0
 10
23.13359780760584
 20
1504.815088549877
 30
0.0
 10
23.13071121632129
 20
1504.818371802311
 30
0.0
 10
23.12782455362321
 20
1504.821654991957
 30
0.0
  0
SPLINE
  5
D4
330
1F
100
AcDbEntity
  8
Table_Miura_9556-01_2D
100
AcDbSpline
210
0.0
220
0.0
230
1.0
 70
     8
 71
     3
 72
    15
 73
    11
 74
     0
 42
0.0000000001
 43
0.0000000001
 40
-17.32695060162204
 40
-17.32695060162204
 40
-17.32695060162204
 40
-17.32695060162204
 40
-14.68355992114336
 40
-12.30992601284868
 40
-9.953021317401364
 40
-7.666287083349559
 40
-3.639233357410877
 40
-1.776264706140459
 40
-0.8793827298841641
 40
0.0
 40
0.0
 40
0.0
 40
0.0
 10
23.12782455362321
 20
1504.821654991957
 30
0.0
 10
22.54604813814149
 20
1505.483347230872
 30
0.0
 10
21.43501718006246
 20
1506.733672778603
 30
0.0
 10
19.73825244659565
 20
1508.512365216714
 30
0.0
 10
18.07376585995462
 20
1510.156436325303
 30
0.0
 10
15.94375721069446
 20
1512.110284157463
 30
0.0
 10
13.84403483532788
 20
1513.851720807731
 30
0.0
 10
11.98974395432288
 20
1515.150529984231
 30
0.0
 10
10.96955138758949
 20
1515.806368314509
 30
0.0
 10
10.46144486897902
 20
1516.110904956128
 30
0.0
 10
10.20810180308126
 20
1516.258194484645
 30
0.0
  0
SPLINE
  5
D5
330
1F
100
AcDbEntity
  8
Table_Miura_9556-01_2D
100
AcDbSpline
210
0.0
220
0.0
230
1.0
 70
    12
 71
     2
 72
     6
 73
     3
 74
     0
 42
0.0000000001
 43
0.0000000001
 40
0.0
 40
0.0
 40
0.0
 40
0.1469556320606097
 40
0.1469556320606097
 40
0.1469556320606097
 10
10.20810180308126
 20
1516.258194484645
 30
0.0
 41
1.0
 10
10.14457501263129
 20
1516.295118242225
 30
0.0
 41
0.9999969449633207
 10
10.08123403574882
 20
1516.332359779362
 30
0.0
 41
1.0
  0
SPLINE
  5
D6
330
1F
100
AcDbEntity
  8
Table_Miura_9556-01_2D
100
AcDbSpline
210
0.0
220
0.0
230
1.0
 70
     8
 71
     5
 72
    12
 73
     6
 74
     0
 42
0.0000000001
 43
0.0000000001
 40
-1.0
 40
-1.0
 40
-1.0
 40
-1.0
 40
-1.0
 40
-1.0
 40
0.0
 40
0.0
 40
0.0
 40
0.0
 40
0.0
 40
0.0
 10
10.08123403574882
 20
1516.332359779362
 30
0.0
 10
10.07790875439514
 20
1516.334314889548
 30
0.0
 10
10.07458379442687
 20
1516.336270546349
 30
0.0
 10
10.07125743677352
 20
1516.338223827246
 30
0.0
 10
10.06793097806167
 20
1516.340176933785
 30
0.0
 10
10.06460406842234
 20
1516.342129271913
 30
0.0
  0
SPLINE
  5
D7
330
1F
100
AcDbEntity
  8
Table_Miura_9556-01_2D
100
AcDbSpline
210
0.0
220
0.0
230
1.0
 70
    12
 71
     2
 72
     6
 73
     3
 74
     0
 42
0.0000000001
 43
0.0000000001
 40
0.0
 40
0.0
 40
0.0
 40
1.059455396730206
 40
1.059455396730206
 40
1.059455396730206
 10
10.06460406842234
 20
1516.342129271913
 30
0.0
 41
1.0
 10
9.60763569395128
 20
1516.610293086916
 30
0.0
 41
0.9996780901699671
 10
9.137652547193284
 20
1516.854931123017
 30
0.0
 41
1.0
  0
SPLINE
  5
D8
330
1F
100
AcDbEntity
  8
Table_Miura_9556-01_2D
100
AcDbSpline
210
0.0
220
0.0
230
1.0
 70
     8
 71
     5
 72
    12
 73
     6
 74
     0
 42
0.0000000001
 43
0.0000000001
 40
0.0
 40
0.0
 40
0.0
 40
0.0
 40
0.0
 40
0.0
 40
1.0
 40
1.0
 40
1.0
 40
1.0
 40
1.0
 40
1.0
 10
9.137652547193284
 20
1516.854931123017
 30
0.0
 10
8.891412462759945
 20
1516.983105273687
 30
0.0
 10
8.643041915711365
 20
1517.107186514114
 30
0.0
 10
8.392495200630947
 20
1517.227460593
 30
0.0
 10
8.140035866567814
 20
1517.342992861067
 30
0.0
 10
7.885754380350591
 20
1517.454364840707
 30
0.0
  0
SPLINE
  5
D9
330
1F
100
AcDbEntity
  8
Table_Miura_9556-01_2D
100
AcDbSpline
210
0.0
220
0.0
230
1.0
 70
     8
 71
     3
 72
    11
 73
     7
 74
     0
 42
0.0000000001
 43
0.0000000001
 40
0.0
 40
0.0
 40
0.0
 40
0.0
 40
0.9078897846316704
 40
1.83413863357669
 40
3.620644636221537
 40
7.168114128633167
 40
7.168114128633167
 40
7.168114128633167
 40
7.168114128633167
 10
7.885754380350591
 20
1517.454364840707
 30
0.0
 10
7.608560858546298
 20
1517.575771993568
 30
0.0
 10
7.043248404551377
 20
1517.809087295917
 30
0.0
 10
5.907567321080023
 20
1518.218286751893
 30
0.0
 10
3.899641124330628
 20
1518.794128276784
 30
0.0
 10
2.132469937944734
 20
1519.048561256197
 30
0.0
 10
0.9514292763915364
 20
1519.108094806312
 30
0.0
  0
SPLINE
  5
DA
330
1F
100
AcDbEntity
  8
Table_Miura_9556-01_2D
100
AcDbSpline
210
0.0
220
0.0
230
1.0
 70
    12
 71
     2
 72
     6
 73
     3
 74
     0
 42
0.0000000001
 43
0.0000000001
 40
-1.522042370303902
 40
-1.522042370303902
 40
-1.522042370303902
 40
0.0
 40
0.0
 40
0.0
 10
0.9514292763915364
 20
1519.108094806312
 30
0.0
 41
1.0
 10
-0.0000796255818667
 20
1519.153596160085
 30
0.0
 41
0.7239225688158022
 10
-0.0002123606356052
 20
1520.106192397398
 30
0.0
 41
0.9999999691280613
  0
SPLINE
  5
DB
330
1F
100
AcDbEntity
  8
Table_Miura_9556-01_2D
100
AcDbSpline
210
0.0
220
0.0
230
1.0
 70
    12
 71
     2
 72
     6
 73
     3
 74
     0
 42
0.0000000001
 43
0.0000000001
 40
0.0
 40
0.0
 40
0.0
 40
1.522042370303902
 40
1.522042370303902
 40
1.522042370303902
 10
-0.0002123606356052
 20
1520.106192397398
 30
0.0
 41
0.9999999691280613
 10
-0.0003450956886074
 20
1519.153596160086
 30
0.0
 41
0.7239225688158022
 10
-0.9518539976625107
 20
1519.108094806312
 30
0.0
 41
1.0
  0
SPLINE
  5
DC
330
1F
100
AcDbEntity
  8
Table_Miura_9556-01_2D
100
AcDbSpline
210
0.0
220
0.0
230
1.0
 70
     8
 71
     3
 72
    11
 73
     7
 74
     0
 42
0.0000000001
 43
0.0000000001
 40
-7.168114128633167
 40
-7.168114128633167
 40
-7.168114128633167
 40
-7.168114128633167
 40
-3.620644636221537
 40
-1.83413863357669
 40
-0.9078897846316704
 40
0.0
 40
0.0
 40
0.0
 40
0.0
 10
-0.9518539976625107
 20
1519.108094806312
 30
0.0
 10
-2.132894659215708
 20
1519.048561256197
 30
0.0
 10
-3.900065845601603
 20
1518.794128276784
 30
0.0
 10
-5.907992042350998
 20
1518.218286751893
 30
0.0
 10
-7.043673125822352
 20
1517.809087295917
 30
0.0
 10
-7.608985579817272
 20
1517.575771993568
 30
0.0
 10
-7.886179101621565
 20
1517.454364840707
 30
0.0
  0
SPLINE
  5
DD
330
1F
100
AcDbEntity
  8
Table_Miura_9556-01_2D
100
AcDbSpline
210
0.0
220
0.0
230
1.0
 70
     8
 71
     5
 72
    12
 73
     6
 74
     0
 42
0.0000000001
 43
0.0000000001
 40
-1.0
 40
-1.0
 40
-1.0
 40
-1.0
 40
-1.0
 40
-1.0
 40
0.0
 40
0.0
 40
0.0
 40
0.0
 40
0.0
 40
0.0
 10
-7.886179101621565
 20
1517.454364840707
 30
0.0
 10
-8.140460587838788
 20
1517.342992861067
 30
0.0
 10
-8.392919921901921
 20
1517.227460593
 30
0.0
 10
-8.643466636982339
 20
1517.107186514114
 30
0.0
 10
-8.89183718403092
 20
1516.983105273687
 30
0.0
 10
-9.138077268464258
 20
1516.854931123017
 30
0.0
  0
SPLINE
  5
DE
330
1F
100
AcDbEntity
  8
Table_Miura_9556-01_2D
100
AcDbSpline
210
0.0
220
0.0
230
1.0
 70
    12
 71
     2
 72
     6
 73
     3
 74
     0
 42
0.0000000001
 43
0.0000000001
 40
-1.059455396730206
 40
-1.059455396730206
 40
-1.059455396730206
 40
0.0
 40
0.0
 40
0.0
 10
-9.138077268464258
 20
1516.854931123017
 30
0.0
 41
1.0
 10
-9.608060415222637
 20
1516.610293086916
 30
0.0
 41
0.9996780901699671
 10
-10.06502878969332
 20
1516.342129271913
 30
0.0
 41
1.0
  0
SPLINE
  5
DF
330
1F
100
AcDbEntity
  8
Table_Miura_9556-01_2D
100
AcDbSpline
210
0.0
220
0.0
230
1.0
 70
     8
 71
     5
 72
    12
 73
     6
 74
     0
 42
0.0000000001
 43
0.0000000001
 40
0.0
 40
0.0
 40
0.0
 40
0.0
 40
0.0
 40
0.0
 40
1.0
 40
1.0
 40
1.0
 40
1.0
 40
1.0
 40
1.0
 10
-10.06502878969332
 20
1516.342129271913
 30
0.0
 10
-10.06835569933264
 20
1516.340176933785
 30
0.0
 10
-10.0716821580445
 20
1516.338223827246
 30
0.0
 10
-10.07500851569785
 20
1516.336270546349
 30
0.0
 10
-10.07833347566611
 20
1516.334314889548
 30
0.0
 10
-10.0816587570198
 20
1516.332359779362
 30
0.0
  0
SPLINE
  5
E0
330
1F
100
AcDbEntity
  8
Table_Miura_9556-01_2D
100
AcDbSpline
210
0.0
220
0.0
230
1.0
 70
    12
 71
     2
 72
     6
 73
     3
 74
     0
 42
0.0000000001
 43
0.0000000001
 40
-0.1469556320606097
 40
-0.1469556320606097
 40
-0.1469556320606097
 40
0.0
 40
0.0
 40
0.0
 10
-10.0816587570198
 20
1516.332359779362
 30
0.0
 41
1.0
 10
-10.14499973390198
 20
1516.295118242225
 30
0.0
 41
0.9999969449633207
 10
-10.20852652435224
 20
1516.258194484645
 30
0.0
 41
1.0
  0
SPLINE
  5
E1
330
1F
100
AcDbEntity
  8
Table_Miura_9556-01_2D
100
AcDbSpline
210
0.0
220
0.0
230
1.0
 70
     8
 71
     3
 72
    15
 73
    11
 74
     0
 42
0.0000000001
 43
0.0000000001
 40
0.0
 40
0.0
 40
0.0
 40
0.0
 40
0.8793827298841641
 40
1.776264706140459
 40
3.639233357410877
 40
7.666287083349559
 40
9.953021317401364
 40
12.30992601284868
 40
14.68355992114336
 40
17.32695060162204
 40
17.32695060162204
 40
17.32695060162204
 40
17.32695060162204
 10
-10.20852652435224
 20
1516.258194484645
 30
0.0
 10
-10.46186959024999
 20
1516.110904956128
 30
0.0
 10
-10.96997610886046
 20
1515.806368314509
 30
0.0
 10
-11.99016867559385
 20
1515.150529984231
 30
0.0
 10
-13.84445955659885
 20
1513.851720807731
 30
0.0
 10
-15.94418193196543
 20
1512.110284157463
 30
0.0
 10
-18.07419058122559
 20
1510.156436325303
 30
0.0
 10
-19.73867716786663
 20
1508.512365216714
 30
0.0
 10
-21.43544190133343
 20
1506.733672778603
 30
0.0
 10
-22.54647285941246
 20
1505.483347230872
 30
0.0
 10
-23.12824927489419
 20
1504.821654991957
 30
0.0
  0
SPLINE
  5
E2
330
1F
100
AcDbEntity
  8
Table_Miura_9556-01_2D
100
AcDbSpline
210
0.0
220
0.0
230
1.0
 70
     8
 71
     5
 72
    12
 73
     6
 74
     0
 42
0.0000000001
 43
0.0000000001
 40
0.0
 40
0.0
 40
0.0
 40
0.0
 40
0.0
 40
0.0
 40
1.0
 40
1.0
 40
1.0
 40
1.0
 40
1.0
 40
1.0
 10
-23.12824927489419
 20
1504.821654991957
 30
0.0
 10
-23.13113593759226
 20
1504.818371802311
 30
0.0
 10
-23.13402252887681
 20
1504.815088549877
 30
0.0
 10
-23.13700374348991
 20
1504.811888275947
 30
0.0
 10
-23.13986572271097
 20
1504.808583547407
 30
0.0
 10
-23.14272770193202
 20
1504.805278818868
 30
0.0
  0
LINE
  5
E3
330
1F
100
AcDbEntity
  8
Table_Miura_9556-01_2D
100
AcDbLine
 10
-23.14272770193202
 20
1504.805278818868
 30
0.0
 11
-350.2271174066071
 21
1127.120804472941
 31
0.0
  0
LINE
  5
E4
330
1F
100
AcDbEntity
  8
Table_Miura_9556-01_2D
100
AcDbLine
 10
-350.2271174066071
 20
1127.120804472941
 30
0.0
 11
-394.8951638730757
 21
1127.120219867359
 31
0.0
  0
LINE
  5
E5
330
1F
100
AcDbEntity
  8
Table_Miura_9556-01_2D
100
AcDbLine
 10
-394.8951638730757
 20
1127.120219867359
 30
0.0
 11
-52.54829839391095
 21
1522.428991705584
 31
0.0
  0
SPLINE
  5
E6
330
1F
100
AcDbEntity
  8
Table_Miura_9556-01_2D
100
AcDbSpline
210
0.0
220
0.0
230
1.0
 70
     8
 71
     5
 72
    12
 73
     6
 74
     0
 42
0.0000000001
 43
0.0000000001
 40
-1.0
 40
-1.0
 40
-1.0
 40
-1.0
 40
-1.0
 40
-1.0
 40
0.0
 40
0.0
 40
0.0
 40
0.0
 40
0.0
 40
0.0
 10
-52.54829839391095
 20
1522.428991705584
 30
0.0
 10
-52.53996893084695
 20
1522.438609759362
 30
0.0
 10
-52.53163946778295
 20
1522.448227813141
 30
0.0
 10
-52.52329182290032
 20
1522.457830135872
 30
0.0
 10
-52.51497143958022
 20
1522.467456045431
 30
0.0
 10
-52.50665096721514
 20
1522.47708187802
 30
0.0
  0
SPLINE
  5
E7
330
1F
100
AcDbEntity
  8
Table_Miura_9556-01_2D
100
AcDbSpline
210
0.0
220
0.0
230
1.0
 70
     8
 71
     3
 72
    18
 73
    14
 74
     0
 42
0.0000000001
 43
0.0000000001
 40
0.0
 40
0.0
 40
0.0
 40
0.0
 40
1.224399517688125
 40
3.216127340650388
 40
5.359452356478953
 40
6.616257952753485
 40
8.473068222320627
 40
11.37665901709092
 40
13.15870189535763
 40
18.5887311986106
 40
21.30318735092228
 40
22.53576743944416
 40
23.95196467547641
 40
23.95196467547641
 40
23.95196467547641
 40
23.95196467547641
 10
-52.50665096721514
 20
1522.47708187802
 30
0.0
 10
-52.23975132457508
 20
1522.785854164697
 30
0.0
 10
-51.53841222842857
 20
1523.596639339289
 30
0.0
 10
-50.3702222433476
 20
1524.948282730265
 30
0.0
 10
-49.18944519123215
 20
1526.303245888298
 30
0.0
 10
-48.0390209323823
 20
1527.625072451418
 30
0.0
 10
-46.73393775429031
 20
1529.148117791108
 30
0.0
 10
-45.34309688435314
 20
1530.828145158781
 30
0.0
 10
-43.25649248572427
 20
1533.477022785249
 30
0.0
 10
-41.30113304855058
 20
1536.147760773693
 30
0.0
 10
-39.55744785552361
 20
1538.742227912612
 30
0.0
 10
-38.59092881380275
 20
1540.246239454793
 30
0.0
 10
-38.12539052080228
 20
1540.996491204037
 30
0.0
 10
-37.87721928705832
 20
1541.398053833621
 30
0.0
  0
SPLINE
  5
E8
330
1F
100
AcDbEntity
  8
Table_Miura_9556-01_2D
100
AcDbSpline
210
0.0
220
0.0
230
1.0
 70
     8
 71
     5
 72
    12
 73
     6
 74
     0
 42
0.0000000001
 43
0.0000000001
 40
-1.0
 40
-1.0
 40
-1.0
 40
-1.0
 40
-1.0
 40
-1.0
 40
0.0
 40
0.0
 40
0.0
 40
0.0
 40
0.0
 40
0.0
 10
-37.87721928705832
 20
1541.398053833621
 30
0.0
 10
-37.87389004900342
 20
1541.403440830203
 30
0.0
 10
-37.87056091958857
 20
1541.408827893925
 30
0.0
 10
-37.8672511782288
 20
1541.414226939188
 30
0.0
 10
-37.86391823784379
 20
1541.419611645923
 30
0.0
 10
-37.860585453358
 20
1541.424996449147
 30
0.0
  0
SPLINE
  5
E9
330
1F
100
AcDbEntity
  8
Table_Miura_9556-01_2D
100
AcDbSpline
210
0.0
220
0.0
230
1.0
 70
     8
 71
     3
 72
    15
 73
    11
 74
     0
 42
0.0000000001
 43
0.0000000001
 40
0.0
 40
0.0
 40
0.0
 40
0.0
 40
2.763377139235543
 40
5.271537957085918
 40
10.5998510122942
 40
21.59382453005134
 40
32.87822943471981
 40
38.64978450157577
 40
41.3966023543671
 40
44.15779849543482
 40
44.15779849543482
 40
44.15779849543482
 40
44.15779849543482
 10
-37.860585453358
 20
1541.424996449147
 30
0.0
 10
-37.37588947208224
 20
1542.208123139072
 30
0.0
 10
-36.45841320222553
 20
1543.707363501165
 30
0.0
 10
-34.73629597879062
 20
1546.792995810471
 30
0.0
 10
-31.9672753451041
 20
1552.43059741199
 30
0.0
 10
-28.75361731848079
 20
1561.073894395071
 30
0.0
 10
-26.61448722374007
 20
1570.194012373434
 30
0.0
 10
-25.69991076587849
 20
1576.734391705724
 30
0.0
 10
-25.35096906454328
 20
1580.478475437866
 30
0.0
 10
-25.24417480083048
 20
1582.311702742741
 30
0.0
 10
-25.20405249918895
 20
1583.231188097634
 30
0.0
  0
SPLINE
  5
EA
330
1F
100
AcDbEntity
  8
Table_Miura_9556-01_2D
100
AcDbSpline
210
0.0
220
0.0
230
1.0
 70
    12
 71
     2
 72
     6
 73
     3
 74
     0
 42
0.0000000001
 43
0.0000000001
 40
-0.0038962172915295
 40
-0.0038962172915295
 40
-0.0038962172915295
 40
0.0
 40
0.0
 40
0.0
 10
-25.20405249918895
 20
1583.231188097634
 30
0.0
 41
1.0
 10
-25.20398985246561
 20
1583.233135313595
 30
0.0
 41
0.9999999970873399
 10
-25.20390396217408
 20
1583.235081529774
 30
0.0
 41
1.0
  0
SPLINE
  5
EB
330
1F
100
AcDbEntity
  8
Table_Miura_9556-01_2D
100
AcDbSpline
210
0.0
220
0.0
230
1.0
 70
    12
 71
     2
 72
     6
 73
     3
 74
     0
 42
0.0000000001
 43
0.0000000001
 40
0.0
 40
0.0
 40
0.0
 40
0.0174069048050353
 40
0.0174069048050353
 40
0.0174069048050353
 10
-25.20390396217408
 20
1583.235081529774
 30
0.0
 41
1.0
 10
-25.20352919290611
 20
1583.243776910447
 30
0.0
 41
0.9999999593102533
 10
-25.20315418998965
 20
1583.252472281228
 30
0.0
 41
1.0
  0
SPLINE
  5
EC
330
1F
100
AcDbEntity
  8
Table_Miura_9556-01_2D
100
AcDbSpline
210
0.0
220
0.0
230
1.0
 70
    12
 71
     2
 72
     6
 73
     3
 74
     0
 42
0.0000000001
 43
0.0000000001
 40
-0.8650636015552053
 40
-0.8650636015552053
 40
-0.8650636015552053
 40
0.0
 40
0.0
 40
0.0
 10
-25.20315418998965
 20
1583.252472281228
 30
0.0
 41
0.9999999999998899
 10
-25.18245262805397
 20
1583.684509858192
 30
0.0
 41
0.9999949169942275
 10
-25.16450434144917
 20
1584.116670570865
 30
0.0
 41
1.0
  0
SPLINE
  5
ED
330
1F
100
AcDbEntity
  8
Table_Miura_9556-01_2D
100
AcDbSpline
210
0.0
220
0.0
230
1.0
 70
    12
 71
     2
 72
     6
 73
     3
 74
     0
 42
0.0000000001
 43
0.0000000001
 40
-0.3764503268402766
 40
-0.3764503268402766
 40
-0.3764503268402766
 40
0.0
 40
0.0
 40
0.0
 10
-25.16450434144917
 20
1584.116670570865
 30
0.0
 41
1.0
 10
-25.15724656110802
 20
1584.304755943671
 30
0.0
 41
0.9999985034549737
 10
-25.15063961904798
 20
1584.492865303235
 30
0.0
 41
1.0
  0
SPLINE
  5
EE
330
1F
100
AcDbEntity
  8
Table_Miura_9556-01_2D
100
AcDbSpline
210
0.0
220
0.0
230
1.0
 70
     8
 71
     5
 72
    12
 73
     6
 74
     0
 42
0.0000000001
 43
0.0000000001
 40
-1.0
 40
-1.0
 40
-1.0
 40
-1.0
 40
-1.0
 40
-1.0
 40
0.0
 40
0.0
 40
0.0
 40
0.0
 40
0.0
 40
0.0
 10
-25.15063961904798
 20
1584.492865303235
 30
0.0
 10
-25.14535140965927
 20
1584.643428403725
 30
0.0
 10
-25.14032381387733
 20
1584.794000657715
 30
0.0
 10
-25.13572893765649
 20
1584.944588645021
 30
0.0
 10
-25.13023399996291
 20
1585.095144517304
 30
0.0
 10
-25.12450981285383
 20
1585.245691672939
 30
0.0
  0
SPLINE
  5
EF
330
1F
100
AcDbEntity
  8
Table_Miura_9556-01_2D
100
AcDbSpline
210
0.0
220
0.0
230
1.0
 70
     8
 71
     3
 72
    15
 73
    11
 74
     0
 42
0.0000000001
 43
0.0000000001
 40
0.0
 40
0.0
 40
0.0
 40
0.0
 40
0.9361505302432512
 40
1.592389293923229
 40
2.107271700881924
 40
2.520270126564129
 40
2.899529664530077
 40
3.247808135525447
 40
3.588551735127004
 40
3.919177605417826
 40
3.919177605417826
 40
3.919177605417826
 40
3.919177605417826
 10
-25.12450981285383
 20
1585.245691672939
 30
0.0
 10
-25.11265364739938
 20
1585.557510967448
 30
0.0
 10
-25.09047666868719
 20
1586.087895773892
 30
0.0
 10
-25.0342341123378
 20
1586.788263884545
 30
0.0
 10
-24.95572246430311
 20
1587.310944980951
 30
0.0
 10
-24.84167179300857
 20
1587.732550652726
 30
0.0
 10
-24.67785674094284
 20
1588.078012672763
 30
0.0
 10
-24.45194335542783
 20
1588.357010751234
 30
0.0
 10
-24.17345661530635
 20
1588.557437724007
 30
0.0
 10
-23.96082343531089
 20
1588.633986982346
 30
0.0
 10
-23.85294376439197
 20
1588.656562512884
 30
0.0
  0
LINE
  5
F0
330
1F
100
AcDbEntity
  8
Table_Miura_9556-01_2D
100
AcDbLine
 10
-23.85294376439197
 20
1588.656562512884
 30
0.0
 11
-21.65120270755415
 21
1588.65647016889
 31
0.0
  0
SPLINE
  5
F1
330
1F
100
AcDbEntity
  8
Table_Miura_9556-01_2D
100
AcDbSpline
210
0.0
220
0.0
230
1.0
 70
     8
 71
     3
 72
    18
 73
    14
 74
     0
 42
0.0000000001
 43
0.0000000001
 40
-11.35744832993483
 40
-11.35744832993483
 40
-11.35744832993483
 40
-11.35744832993483
 40
-7.387935346890758
 40
-6.716881895257425
 40
-6.413782533532999
 40
-6.129926738348679
 40
-5.827549416049516
 40
-5.506991273313297
 40
-4.870777299577194
 40
-3.713958932632885
 40
-2.530514856758515
 40
-1.285072805565842
 40
0.0
 40
0.0
 40
0.0
 40
0.0
 10
-21.65120270755415
 20
1588.65647016889
 30
0.0
 10
-20.32802257090225
 20
1588.656359177252
 30
0.0
 10
-18.78119149766644
 20
1588.656664193282
 30
0.0
 10
-17.13327648800441
 20
1588.656315727008
 30
0.0
 10
-16.71398513425447
 20
1588.65688518069
 30
0.0
 10
-16.41738650133266
 20
1588.65721811677
 30
0.0
 10
-16.1162175253794
 20
1588.626085235642
 30
0.0
 10
-15.70452936415222
 20
1588.542593052015
 30
0.0
 10
-15.03817042510036
 20
1588.303745250653
 30
0.0
 10
-14.20254755704173
 20
1587.750271357403
 30
0.0
 10
-13.4090826156571
 20
1586.843950140717
 30
0.0
 10
-12.83340723724268
 20
1585.738620645969
 30
0.0
 10
-12.62152456793046
 20
1584.916556626554
 30
0.0
 10
-12.56074352844553
 20
1584.49257980808
 30
0.0
  0
SPLINE
  5
F2
330
1F
100
AcDbEntity
  8
Table_Miura_9556-01_2D
100
AcDbSpline
210
0.0
220
0.0
230
1.0
 70
    12
 71
     3
 72
    10
 73
     6
 74
     0
 42
0.0000000001
 43
0.0000000001
 40
-1.411401651021521
 40
-1.411401651021521
 40
-1.411401651021521
 40
-1.411401651021521
 40
-0.7080503722075561
 40
-0.7080503722075561
 40
-0.0049548029583888
 40
-0.0049548029583888
 40
-0.0049548029583888
 40
-0.0049548029583888
 10
-12.56074352844553
 20
1584.49257980808
 30
0.0
 41
1.0
 10
-12.52714964274855
 20
1584.25871807011
 30
0.0
 41
1.0
 10
-12.42319759158636
 20
1584.04673345349
 30
0.0
 41
1.0
 10
-12.10781020657396
 20
1583.740188164664
 30
0.0
 41
1.0
 10
-11.90740831737639
 20
1583.65646470679
 30
0.0
 41
1.0
 10
-11.69797530693995
 20
1583.65647007478
 30
0.0
 41
1.0
  0
SPLINE
  5
F3
330
1F
100
AcDbEntity
  8
Table_Miura_9556-01_2D
100
AcDbSpline
210
0.0
220
0.0
230
1.0
 70
    12
 71
     2
 72
     6
 73
     3
 74
     0
 42
0.0000000001
 43
0.0000000001
 40
0.0
 40
0.0
 40
0.0
 40
11.69797561871451
 40
11.69797561871451
 40
11.69797561871451
 10
-11.69797530693995
 20
1583.65647007478
 30
0.0
 41
1.0
 10
-5.849093833787265
 20
1583.656470041771
 30
0.0
 41
1.0
 10
-0.0002123606354871
 20
1583.656470068674
 30
0.0
 41
1.0
  0
SPLINE
  5
F4
330
1F
100
AcDbEntity
  8
Table_Miura_9556-01_2D
100
AcDbSpline
210
0.0
220
0.0
230
1.0
 70
    12
 71
     2
 72
     6
 73
     3
 74
     0
 42
0.0000000001
 43
0.0000000001
 40
-11.69797561871451
 40
-11.69797561871451
 40
-11.69797561871451
 40
0.0
 40
0.0
 40
0.0
 10
-0.0002123606354871
 20
1583.656470068674
 30
0.0
 41
1.0
 10
5.848669112516291
 20
1583.656470041771
 30
0.0
 41
1.0
 10
11.69755058566898
 20
1583.65647007478
 30
0.0
 41
1.0
  0
SPLINE
  5
F5
330
1F
100
AcDbEntity
  8
Table_Miura_9556-01_2D
100
AcDbSpline
210
0.0
220
0.0
230
1.0
 70
    12
 71
     3
 72
    10
 73
     6
 74
     0
 42
0.0000000001
 43
0.0000000001
 40
0.0049548029583888
 40
0.0049548029583888
 40
0.0049548029583888
 40
0.0049548029583888
 40
0.7080503722075561
 40
0.7080503722075561
 40
1.411401651021521
 40
1.411401651021521
 40
1.411401651021521
 40
1.411401651021521
 10
11.69755058566898
 20
1583.65647007478
 30
0.0
 41
1.0
 10
11.90698359610542
 20
1583.65646470679
 30
0.0
 41
1.0
 10
12.10738548530298
 20
1583.740188164664
 30
0.0
 41
1.0
 10
12.42277287031538
 20
1584.04673345349
 30
0.0
 41
1.0
 10
12.52672492147758
 20
1584.25871807011
 30
0.0
 41
1.0
 10
12.56031880717455
 20
1584.49257980808
 30
0.0
 41
1.0
  0
SPLINE
  5
F6
330
1F
100
AcDbEntity
  8
Table_Miura_9556-01_2D
100
AcDbSpline
210
0.0
220
0.0
230
1.0
 70
     8
 71
     3
 72
    18
 73
    14
 74
     0
 42
0.0000000001
 43
0.0000000001
 40
0.0
 40
0.0
 40
0.0
 40
0.0
 40
1.285072805565842
 40
2.530514856758515
 40
3.713958932632885
 40
4.870777299577194
 40
5.506991273313297
 40
5.827549416049516
 40
6.129926738348679
 40
6.413782533532999
 40
6.716881895257425
 40
7.387935346890758
 40
11.35744832993483
 40
11.35744832993483
 40
11.35744832993483
 40
11.35744832993483
 10
12.56031880717455
 20
1584.49257980808
 30
0.0
 10
12.62109984665949
 20
1584.916556626554
 30
0.0
 10
12.83298251597171
 20
1585.738620645969
 30
0.0
 10
13.40865789438612
 20
1586.843950140717
 30
0.0
 10
14.20212283577075
 20
1587.750271357403
 30
0.0
 10
15.03774570382939
 20
1588.303745250653
 30
0.0
 10
15.70410464288125
 20
1588.542593052015
 30
0.0
 10
16.11579280410842
 20
1588.626085235642
 30
0.0
 10
16.41696178006168
 20
1588.65721811677
 30
0.0
 10
16.7135604129835
 20
1588.65688518069
 30
0.0
 10
17.13285176673344
 20
1588.656315727008
 30
0.0
 10
18.78076677639547
 20
1588.656664193282
 30
0.0
 10
20.32759784963127
 20
1588.656359177252
 30
0.0
 10
21.65077798628317
 20
1588.65647016889
 30
0.0
  0
LINE
  5
F7
330
1F
100
AcDbEntity
  8
Table_Miura_9556-01_2D
100
AcDbLine
 10
21.65077798628317
 20
1588.65647016889
 30
0.0
 11
23.85251904312099
 21
1588.656562512884
 31
0.0
  0
SPLINE
  5
F8
330
1F
100
AcDbEntity
  8
Table_Miura_9556-01_2D
100
AcDbSpline
210
0.0
220
0.0
230
1.0
 70
     8
 71
     3
 72
    15
 73
    11
 74
     0
 42
0.0000000001
 43
0.0000000001
 40
-3.919177605417826
 40
-3.919177605417826
 40
-3.919177605417826
 40
-3.919177605417826
 40
-3.588551735127004
 40
-3.247808135525447
 40
-2.899529664530077
 40
-2.520270126564129
 40
-2.107271700881924
 40
-1.592389293923229
 40
-0.9361505302432512
 40
0.0
 40
0.0
 40
0.0
 40
0.0
 10
23.85251904312099
 20
1588.656562512884
 30
0.0
 10
23.96039871403991
 20
1588.633986982346
 30
0.0
 10
24.17303189403538
 20
1588.557437724007
 30
0.0
 10
24.45151863415686
 20
1588.357010751234
 30
0.0
 10
24.67743201967187
 20
1588.078012672763
 30
0.0
 10
24.8412470717376
 20
1587.732550652726
 30
0.0
 10
24.95529774303213
 20
1587.310944980951
 30
0.0
 10
25.03380939106682
 20
1586.788263884545
 30
0.0
 10
25.09005194741621
 20
1586.087895773892
 30
0.0
 10
25.11222892612841
 20
1585.557510967448
 30
0.0
 10
25.12408509158286
 20
1585.245691672939
 30
0.0
  0
SPLINE
  5
F9
330
1F
100
AcDbEntity
  8
Table_Miura_9556-01_2D
100
AcDbSpline
210
0.0
220
0.0
230
1.0
 70
     8
 71
     5
 72
    12
 73
     6
 74
     0
 42
0.0000000001
 43
0.0000000001
 40
0.0
 40
0.0
 40
0.0
 40
0.0
 40
0.0
 40
0.0
 40
1.0
 40
1.0
 40
1.0
 40
1.0
 40
1.0
 40
1.0
 10
25.12408509158286
 20
1585.245691672939
 30
0.0
 10
25.12980927869194
 20
1585.095144517304
 30
0.0
 10
25.13530421638552
 20
1584.944588645021
 30
0.0
 10
25.13989909260636
 20
1584.794000657715
 30
0.0
 10
25.1449266883883
 20
1584.643428403725
 30
0.0
 10
25.150214897777
 20
1584.492865303235
 30
0.0
  0
SPLINE
  5
FA
330
1F
100
AcDbEntity
  8
Table_Miura_9556-01_2D
100
AcDbSpline
210
0.0
220
0.0
230
1.0
 70
    12
 71
     2
 72
     6
 73
     3
 74
     0
 42
0.0000000001
 43
0.0000000001
 40
0.0
 40
0.0
 40
0.0
 40
0.3764503268402766
 40
0.3764503268402766
 40
0.3764503268402766
 10
25.150214897777
 20
1584.492865303235
 30
0.0
 41
1.0
 10
25.15682183983749
 20
1584.304755943671
 30
0.0
 41
0.9999985034549737
 10
25.1640796201782
 20
1584.116670570865
 30
0.0
 41
1.0
  0
SPLINE
  5
FB
330
1F
100
AcDbEntity
  8
Table_Miura_9556-01_2D
100
AcDbSpline
210
0.0
220
0.0
230
1.0
 70
    12
 71
     2
 72
     6
 73
     3
 74
     0
 42
0.0000000001
 43
0.0000000001
 40
0.0
 40
0.0
 40
0.0
 40
0.8650636015552053
 40
0.8650636015552053
 40
0.8650636015552053
 10
25.1640796201782
 20
1584.116670570865
 30
0.0
 41
1.0
 10
25.18202790678284
 20
1583.684509858192
 30
0.0
 41
0.9999949169942275
 10
25.20272946871865
 20
1583.252472281228
 30
0.0
 41
0.9999999999998899
  0
SPLINE
  5
FC
330
1F
100
AcDbEntity
  8
Table_Miura_9556-01_2D
100
AcDbSpline
210
0.0
220
0.0
230
1.0
 70
    12
 71
     2
 72
     6
 73
     3
 74
     0
 42
0.0000000001
 43
0.0000000001
 40
-0.0174069048050353
 40
-0.0174069048050353
 40
-0.0174069048050353
 40
0.0
 40
0.0
 40
0.0
 10
25.20272946871865
 20
1583.252472281228
 30
0.0
 41
1.0
 10
25.20310447163471
 20
1583.243776910447
 30
0.0
 41
0.9999999593102533
 10
25.20347924090311
 20
1583.235081529774
 30
0.0
 41
1.0
  0
SPLINE
  5
FD
330
1F
100
AcDbEntity
  8
Table_Miura_9556-01_2D
100
AcDbSpline
210
0.0
220
0.0
230
1.0
 70
    12
 71
     2
 72
     6
 73
     3
 74
     0
 42
0.0000000001
 43
0.0000000001
 40
0.0
 40
0.0
 40
0.0
 40
0.0038962172915295
 40
0.0038962172915295
 40
0.0038962172915295
 10
25.20347924090311
 20
1583.235081529774
 30
0.0
 41
1.0
 10
25.20356513119452
 20
1583.233135313595
 30
0.0
 41
0.9999999970873399
 10
25.20362777791797
 20
1583.231188097634
 30
0.0
 41
1.0
  0
SPLINE
  5
FE
330
1F
100
AcDbEntity
  8
Table_Miura_9556-01_2D
100
AcDbSpline
210
0.0
220
0.0
230
1.0
 70
     8
 71
     3
 72
    15
 73
    11
 74
     0
 42
0.0000000001
 43
0.0000000001
 40
-44.15779849543482
 40
-44.15779849543482
 40
-44.15779849543482
 40
-44.15779849543482
 40
-41.3966023543671
 40
-38.64978450157577
 40
-32.87822943471981
 40
-21.59382453005134
 40
-10.5998510122942
 40
-5.271537957085918
 40
-2.763377139235543
 40
0.0
 40
0.0
 40
0.0
 40
0.0
 10
25.20362777791797
 20
1583.231188097634
 30
0.0
 10
25.2437500795595
 20
1582.311702742741
 30
0.0
 10
25.3505443432723
 20
1580.478475437866
 30
0.0
 10
25.69948604460751
 20
1576.734391705724
 30
0.0
 10
26.6140625024691
 20
1570.194012373434
 30
0.0
 10
28.75319259720982
 20
1561.073894395071
 30
0.0
 10
31.96685062383312
 20
1552.43059741199
 30
0.0
 10
34.73587125751965
 20
1546.792995810471
 30
0.0
 10
36.45798848095455
 20
1543.707363501165
 30
0.0
 10
37.37546475081126
 20
1542.208123139072
 30
0.0
 10
37.86016073208702
 20
1541.424996449147
 30
0.0
  0
SPLINE
  5
FF
330
1F
100
AcDbEntity
  8
Table_Miura_9556-01_2D
100
AcDbSpline
210
0.0
220
0.0
230
1.0
 70
     8
 71
     5
 72
    12
 73
     6
 74
     0
 42
0.0000000001
 43
0.0000000001
 40
0.0
 40
0.0
 40
0.0
 40
0.0
 40
0.0
 40
0.0
 40
1.0
 40
1.0
 40
1.0
 40
1.0
 40
1.0
 40
1.0
 10
37.86016073208702
 20
1541.424996449147
 30
0.0
 10
37.86349351657282
 20
1541.419611645923
 30
0.0
 10
37.86682645695782
 20
1541.414226939188
 30
0.0
 10
37.8701361983176
 20
1541.408827893925
 30
0.0
 10
37.87346532773245
 20
1541.403440830203
 30
0.0
 10
37.87679456578735
 20
1541.398053833621
 30
0.0
  0
SPLINE
  5
100
330
1F
100
AcDbEntity
  8
Table_Miura_9556-01_2D
100
AcDbSpline
210
0.0
220
0.0
230
1.0
 70
     8
 71
     3
 72
    18
 73
    14
 74
     0
 42
0.0000000001
 43
0.0000000001
 40
-23.95196467547641
 40
-23.95196467547641
 40
-23.95196467547641
 40
-23.95196467547641
 40
-22.53576743944416
 40
-21.30318735092228
 40
-18.5887311986106
 40
-13.15870189535763
 40
-11.37665901709092
 40
-8.473068222320627
 40
-6.616257952753485
 40
-5.359452356478953
 40
-3.216127340650388
 40
-1.224399517688125
 40
0.0
 40
0.0
 40
0.0
 40
0.0
 10
37.87679456578735
 20
1541.398053833621
 30
0.0
 10
38.12496579953131
 20
1540.996491204037
 30
0.0
 10
38.59050409253177
 20
1540.246239454793
 30
0.0
 10
39.55702313425263
 20
1538.742227912612
 30
0.0
 10
41.30070832727961
 20
1536.147760773693
 30
0.0
 10
43.25606776445329
 20
1533.477022785249
 30
0.0
 10
45.34267216308217
 20
1530.828145158781
 30
0.0
 10
46.73351303301934
 20
1529.148117791108
 30
0.0
 10
48.03859621111133
 20
1527.625072451418
 30
0.0
 10
49.18902046996118
 20
1526.303245888298
 30
0.0
 10
50.36979752207662
 20
1524.948282730265
 30
0.0
 10
51.5379875071576
 20
1523.596639339289
 30
0.0
 10
52.23932660330411
 20
1522.785854164697
 30
0.0
 10
52.50622624594416
 20
1522.47708187802
 30
0.0
  0
SPLINE
  5
101
330
1F
100
AcDbEntity
  8
Table_Miura_9556-01_2D
100
AcDbSpline
210
0.0
220
0.0
230
1.0
 70
     8
 71
     5
 72
    12
 73
     6
 74
     0
 42
0.0000000001
 43
0.0000000001
 40
0.0
 40
0.0
 40
0.0
 40
0.0
 40
0.0
 40
0.0
 40
1.0
 40
1.0
 40
1.0
 40
1.0
 40
1.0
 40
1.0
 10
52.50622624594416
 20
1522.47708187802
 30
0.0
 10
52.51454671830925
 20
1522.467456045431
 30
0.0
 10
52.52286710162934
 20
1522.457830135872
 30
0.0
 10
52.53121474651198
 20
1522.448227813141
 30
0.0
 10
52.53954420957598
 20
1522.438609759362
 30
0.0
 10
52.54787367263998
 20
1522.428991705584
 30
0.0
  0
LINE
  5
102
330
1F
100
AcDbEntity
  8
Table_Miura_9556-01_2D
100
AcDbLine
 10
52.54787367263998
 20
1522.428991705584
 30
0.0
 11
394.8947391518048
 21
1127.120219867359
 31
0.0
  0
LINE
  5
103
330
1F
100
AcDbEntity
  8
Table_Miura_9556-01_2D
100
AcDbLine
 10
394.8947391518048
 20
1127.120219867359
 30
0.0
 11
350.2266926853362
 21
1127.120804472941
 31
0.0
  0
SPLINE
  5
104
330
1F
100
AcDbEntity
  8
Table_Miura_9556-01_2D
100
AcDbSpline
210
0.0
220
0.0
230
1.0
 70
    12
 71
     2
 72
     6
 73
     3
 74
     0
 42
0.0000000001
 43
0.0000000001
 40
0.0
 40
0.0
 40
0.0
 40
1.517675704074519
 40
1.517675704074519
 40
1.517675704074519
 10
1468.483558872455
 20
1583.655950124958
 30
0.0
 41
1.0
 10
1467.535306676946
 20
1583.62480889732
 30
0.0
 41
0.7256366645658145
 10
1467.515845409667
 20
1582.676767194775
 30
0.0
 41
1.0
  0
SPLINE
  5
105
330
1F
100
AcDbEntity
  8
Table_Miura_9556-01_2D
100
AcDbSpline
210
0.0
220
0.0
230
1.0
 70
    12
 71
     2
 72
     6
 73
     3
 74
     0
 42
0.0000000001
 43
0.0000000001
 40
0.0
 40
0.0
 40
0.0
 40
4.338894157400504
 40
4.338894157400504
 40
4.338894157400504
 10
1467.515845409667
 20
1582.676767194775
 30
0.0
 41
1.0
 10
1467.471265373545
 20
1580.505082651384
 30
0.0
 41
0.999957710116485
 10
1467.386660169183
 20
1578.337224726053
 30
0.0
 41
1.0
  0
SPLINE
  5
106
330
1F
100
AcDbEntity
  8
Table_Miura_9556-01_2D
100
AcDbSpline
210
0.0
220
0.0
230
1.0
 70
     8
 71
     3
 72
    13
 73
     9
 74
     0
 42
0.0000000001
 43
0.0000000001
 40
0.0
 40
0.0
 40
0.0
 40
0.0
 40
1.195776873000196
 40
2.341423735031693
 40
4.878196780698156
 40
8.059055609734553
 40
9.89647813407859
 40
11.23169972175378
 40
11.23169972175378
 40
11.23169972175378
 40
11.23169972175378
 10
1467.386660169183
 20
1578.337224726053
 30
0.0
 10
1467.371116097182
 20
1577.938935519919
 30
0.0
 10
1467.339188185291
 20
1577.159113014784
 30
0.0
 10
1467.265445791175
 20
1575.534715143511
 30
0.0
 10
1467.146823136252
 20
1573.250016483157
 30
0.0
 10
1466.999264163938
 20
1570.735981899767
 30
0.0
 10
1466.8688224697
 20
1568.622169036214
 30
0.0
 10
1466.800917187851
 20
1567.561739461876
 30
0.0
 10
1466.771016160402
 20
1567.117670711661
 30
0.0
  0
SPLINE
  5
107
330
1F
100
AcDbEntity
  8
Table_Miura_9556-01_2D
100
AcDbSpline
210
0.0
220
0.0
230
1.0
 70
     8
 71
     3
 72
    46
 73
    42
 74
     0
 42
0.0000000001
 43
0.0000000001
 40
0.0
 40
0.0
 40
0.0
 40
0.0
 40
4.445528572919531
 40
9.136184748431083
 40
13.56629843505467
 40
20.52288534708523
 40
22.80023416032957
 40
26.47397545349463
 40
30.12593374789432
 40
33.12390876023884
 40
33.12390876023884
 40
33.12390876023884
 40
33.44213680694137
 40
33.79291129403629
 40
34.65617602833069
 40
35.95951821029371
 40
35.95951821029371
 40
35.95951821029371
 40
37.26413056451781
 40
38.4014712048069
 40
40.57038699906815
 40
42.7593198436251
 40
44.84110739718989
 40
45.77561526079327
 40
46.6545373728493
 40
47.46896338621529
 40
48.21895529454341
 40
48.90499283523491
 40
49.56381445895246
 40
50.22094840567009
 40
51.02557524063457
 40
51.02557524063457
 40
51.02557524063457
 40
56.82679662646953
 40
56.82679662646953
 40
56.82679662646953
 40
57.82809886771776
 40
58.78296253335561
 40
60.89975999567615
 40
62.90994723231162
 40
65.188593675824
 40
65.188593675824
 40
65.188593675824
 40
65.188593675824
 10
1466.771016160402
 20
1567.117670711661
 30
0.0
 10
1466.671462896978
 20
1565.639176591504
 30
0.0
 10
1466.451711531477
 20
1562.601683737208
 30
0.0
 10
1466.084811875048
 20
1558.094457329815
 30
0.0
 10
1465.613859623427
 20
1552.756049777478
 30
0.0
 10
1465.189719834581
 20
1548.221150559732
 30
0.0
 10
1464.800031755629
 20
1543.936270540258
 30
0.0
 10
1464.523997971975
 20
1540.747164642371
 30
0.0
 10
1464.266446346
 20
1537.315477012836
 30
0.0
 10
1464.144735357493
 20
1535.098694806328
 30
0.0
 10
1464.106498660084
 20
1534.10008841176
 30
0.0
 10
1464.102440012057
 20
1533.9940909761
 30
0.0
 10
1464.094356372023
 20
1533.771233464608
 30
0.0
 10
1464.079442231625
 20
1533.260696424882
 30
0.0
 10
1464.058276959755
 20
1532.421828530348
 30
0.0
 10
1464.049674752187
 20
1531.699647965392
 30
0.0
 10
1464.049717289641
 20
1531.265193600222
 30
0.0
 10
1464.049328970576
 20
1530.830356978887
 30
0.0
 10
1464.059770781006
 20
1530.016179548407
 30
0.0
 10
1464.157379081907
 20
1528.481842965042
 30
0.0
 10
1464.43764367992
 20
1526.667972877403
 30
0.0
 10
1465.037687792939
 20
1524.602267311859
 30
0.0
 10
1465.742684584789
 20
1523.011860846053
 30
0.0
 10
1466.409825296426
 20
1521.896249576989
 30
0.0
 10
1466.926025404842
 20
1521.187465023306
 30
0.0
 10
1467.472321686224
 20
1520.581578877579
 30
0.0
 10
1468.040832406537
 20
1520.0896336128
 30
0.0
 10
1468.629496773642
 20
1519.710531948975
 30
0.0
 10
1469.241301835673
 20
1519.438749627577
 30
0.0
 10
1469.92599274175
 20
1519.255434414152
 30
0.0
 10
1470.410638357996
 20
1519.196654223497
 30
0.0
 10
1470.677064186913
 20
1519.167258455235
 30
0.0
 10
1472.599764672759
 20
1518.953262182444
 30
0.0
 10
1474.810016338436
 20
1518.055618607256
 30
0.0
 10
1475.760187267821
 20
1516.371542263694
 30
0.0
 10
1475.923842535143
 20
1516.080652080299
 30
0.0
 10
1476.242771163586
 20
1515.511911105019
 30
0.0
 10
1476.897429117909
 20
1514.322508254285
 30
0.0
 10
1477.699603249783
 20
1512.830505744856
 30
0.0
 10
1478.691628640294
 20
1510.939702053166
 30
0.0
 10
1479.373891139815
 20
1509.604438842317
 30
0.0
 10
1479.713568604826
 20
1508.92508391187
 30
0.0
  0
LINE
  5
108
330
1F
100
AcDbEntity
  8
Table_Miura_9556-01_2D
100
AcDbLine
 10
1479.713568604826
 20
1508.92508391187
 30
0.0
 11
1670.615638613019
 21
1127.120943656688
 31
0.0
  0
LINE
  5
109
330
1F
100
AcDbEntity
  8
Table_Miura_9556-01_2D
100
AcDbLine
 10
1670.615638613019
 20
1127.120943656688
 30
0.0
 11
1719.083562970531
 21
1127.121407263528
 31
0.0
  0
LINE
  5
10A
330
1F
100
AcDbEntity
  8
Table_Miura_9556-01_2D
100
AcDbLine
 10
1719.083562970531
 20
1127.121407263528
 30
0.0
 11
1523.491196678759
 21
1518.306140091739
 31
0.0
  0
SPLINE
  5
10B
330
1F
100
AcDbEntity
  8
Table_Miura_9556-01_2D
100
AcDbSpline
210
0.0
220
0.0
230
1.0
 70
     8
 71
     3
 72
    15
 73
    11
 74
     0
 42
0.0000000001
 43
0.0000000001
 40
0.0
 40
0.0
 40
0.0
 40
0.0
 40
2.804057442577903
 40
5.813535061115351
 40
7.520094063378131
 40
12.01795169840552
 40
16.91927281030366
 40
18.14949344777262
 40
19.34253087904432
 40
21.65307934478401
 40
21.65307934478401
 40
21.65307934478401
 40
21.65307934478401
 10
1523.491196678759
 20
1518.306140091739
 30
0.0
 10
1523.073194832437
 20
1519.142143784904
 30
0.0
 10
1522.171866413346
 20
1520.951223860569
 30
0.0
 10
1521.04638839369
 20
1523.191037558795
 30
0.0
 10
1519.678908839809
 20
1525.941138375222
 30
0.0
 10
1518.069943647745
 20
1529.27523881167
 30
0.0
 10
1516.589942770794
 20
1532.494701782021
 30
0.0
 10
1515.603639793168
 20
1534.728148320451
 30
0.0
 10
1514.971406311897
 20
1536.173922179922
 30
0.0
 10
1514.521625507803
 20
1537.251741268486
 30
0.0
 10
1514.221811285057
 20
1537.961164781745
 30
0.0
  0
SPLINE
  5
10C
330
1F
100
AcDbEntity
  8
Table_Miura_9556-01_2D
100
AcDbSpline
210
0.0
220
0.0
230
1.0
 70
    12
 71
     3
 72
    26
 73
    22
 74
     0
 42
0.0000000001
 43
0.0000000001
 40
-45.87114236150764
 40
-45.87114236150764
 40
-45.87114236150764
 40
-45.87114236150764
 40
-43.74827143190391
 40
-41.95073232195075
 40
-37.96290779321185
 40
-29.2091905711187
 40
-19.77032179938261
 40
-14.83888187793954
 40
-9.83637658103571
 40
-9.83637658103571
 40
-9.83637658103571
 40
-9.16749384238369
 40
-7.554830330056149
 40
-5.942166817728606
 40
-4.329503305401064
 40
-4.329503305401064
 40
-4.329503305401064
 40
0.0
 40
0.0
 40
0.0
 40
1.489429492300063
 40
1.489429492300063
 40
1.489429492300063
 40
1.489429492300063
 10
1514.221811285057
 20
1537.961164781745
 30
0.0
 41
1.0
 10
1513.946366896753
 20
1538.61292414082
 30
0.0
 41
1.0
 10
1513.414357283948
 20
1539.869618244904
 30
0.0
 41
1.0
 10
1512.454099893239
 20
1542.324646551143
 30
0.0
 41
1.0
 10
1510.853754642259
 20
1546.900856148061
 30
0.0
 41
1.0
 10
1508.865176660025
 20
1554.027545050815
 30
0.0
 41
1.0
 10
1507.323719941378
 20
1561.58408874829
 30
0.0
 41
1.0
 10
1506.327793936991
 20
1567.965062100937
 30
0.0
 41
1.0
 10
1505.917025686839
 20
1571.251259230376
 30
0.0
 41
1.0
 10
1505.734184845223
 20
1572.908675918151
 30
0.0
 41
1.0
 10
1505.709792084876
 20
1573.129791549116
 30
0.0
 41
1.0
 10
1505.627734871187
 20
1573.884089029065
 30
0.0
 41
1.0
 10
1505.494806318681
 20
1575.171407920061
 30
0.0
 41
1.0
 10
1505.342872810777
 20
1576.773160735026
 30
0.0
 41
1.0
 10
1505.252921016206
 20
1577.841328781521
 30
0.0
 41
1.0
 10
1505.211185373937
 20
1578.375752039729
 30
0.0
 41
1.0
 10
1505.0988173635
 20
1579.814619995073
 30
0.0
 41
0.999887491868595
 10
1505.012901848739
 20
1581.255309443569
 30
0.0
 41
0.999887491868595
 10
1504.953467828235
 20
1582.697334117385
 30
0.0
 41
1.0
 10
1504.930870911626
 20
1583.245594373495
 30
0.0
 41
0.8233637531700498
 10
1504.542812134664
 20
1583.633550962168
 30
0.0
 41
0.8233637531700498
 10
1503.994927235088
 20
1583.655622296135
 30
0.0
 41
1.0
  0
SPLINE
  5
10D
330
1F
100
AcDbEntity
  8
Table_Miura_9556-01_2D
100
AcDbSpline
210
0.0
220
0.0
230
1.0
 70
    12
 71
     2
 72
     6
 73
     3
 74
     0
 42
0.0000000001
 43
0.0000000001
 40
0.0
 40
0.0
 40
0.0
 40
1.347660071043663
 40
1.347660071043663
 40
1.347660071043663
 10
1455.39977705471
 20
1588.65647011412
 30
0.0
 41
1.0
 10
1454.62126399514
 20
1588.478951139154
 30
0.0
 41
0.781453218492171
 10
1454.622061258044
 20
1587.680455719706
 30
0.0
 41
1.0
  0
SPLINE
  5
10E
330
1F
100
AcDbEntity
  8
Table_Miura_9556-01_2D
100
AcDbSpline
210
0.0
220
0.0
230
1.0
 70
     8
 71
     3
 72
    13
 73
     9
 74
     0
 42
0.0000000001
 43
0.0000000001
 40
0.0
 40
0.0
 40
0.0
 40
0.0
 40
3.162722799211982
 40
5.963232700855801
 40
11.82659241116913
 40
23.58923876696889
 40
35.36859962543459
 40
47.14230545140192
 40
47.14230545140192
 40
47.14230545140192
 40
47.14230545140192
 10
1454.622061258044
 20
1587.680455719706
 30
0.0
 10
1454.624265492086
 20
1586.626286893327
 30
0.0
 10
1454.615545997609
 20
1584.638157591012
 30
0.0
 10
1454.440435059636
 20
1580.699218105294
 30
0.0
 10
1453.77302543616
 20
1573.91860015895
 30
0.0
 10
1451.739539442136
 20
1564.302907439596
 30
0.0
 10
1447.630946046527
 20
1553.237219489714
 30
0.0
 10
1443.837871514552
 20
1546.338930052473
 30
0.0
 10
1441.699185659377
 20
1543.048316970504
 30
0.0
  0
SPLINE
  5
10F
330
1F
100
AcDbEntity
  8
Table_Miura_9556-01_2D
100
AcDbSpline
210
0.0
220
0.0
230
1.0
 70
     8
 71
     5
 72
    12
 73
     6
 74
     0
 42
0.0000000001
 43
0.0000000001
 40
0.0
 40
0.0
 40
0.0
 40
0.0
 40
0.0
 40
0.0
 40
1.0
 40
1.0
 40
1.0
 40
1.0
 40
1.0
 40
1.0
 10
1441.699185659377
 20
1543.048316970504
 30
0.0
 10
1440.381059581854
 20
1541.020229066016
 30
0.0
 10
1438.986134021967
 20
1539.042055862079
 30
0.0
 10
1437.503923194387
 20
1537.114097804478
 30
0.0
 10
1435.972334267278
 20
1535.238914321096
 30
0.0
 10
1434.360840275671
 20
1533.435117209558
 30
0.0
  0
SPLINE
  5
110
330
1F
100
AcDbEntity
  8
Table_Miura_9556-01_2D
100
AcDbSpline
210
0.0
220
0.0
230
1.0
 70
     8
 71
     3
 72
    14
 73
    10
 74
     0
 42
0.0000000001
 43
0.0000000001
 40
0.0
 40
0.0
 40
0.0
 40
0.0
 40
0.9891480038174153
 40
2.048682505589698
 40
4.284630339927826
 40
5.914186096750435
 40
6.608070935285521
 40
9.47879807401191
 40
12.82201302314979
 40
12.82201302314979
 40
12.82201302314979
 40
12.82201302314979
 10
1434.360840275671
 20
1533.435117209558
 30
0.0
 10
1434.141170116634
 20
1533.18923332763
 30
0.0
 10
1433.682515928611
 20
1532.683274338662
 30
0.0
 10
1432.710359046301
 20
1531.63695405613
 30
0.0
 10
1431.572532475584
 20
1530.453422261136
 30
0.0
 10
1430.501879914871
 20
1529.374740397073
 30
0.0
 10
1429.274970451475
 20
1528.153105009761
 30
0.0
 10
1427.638776657143
 20
1526.532943363568
 30
0.0
 10
1426.178446015681
 20
1525.063979373909
 30
0.0
 10
1425.390608678741
 20
1524.275815328718
 30
0.0
  0
LINE
  5
111
330
1F
100
AcDbEntity
  8
Table_Miura_9556-01_2D
100
AcDbLine
 10
1425.390608678741
 20
1524.275815328718
 30
0.0
 11
1028.234384969457
 21
1127.119585394184
 31
0.0
  0
POLYLINE
  5
112
330
1F
100
AcDbEntity
  8
Table_Miura_9556-01_2D
100
AcDb2dPolyline
 66
     1
 10
0.0
 20
0.0
 30
0.0
  0
VERTEX
  5
113
330
112
100
AcDbEntity
  8
Table_Miura_9556-01_2D
100
AcDbVertex
100
AcDb2dVertex
 10
1028.234384969457
 20
1127.119585394184
 30
0.0
  0
VERTEX
  5
114
330
112
100
AcDbEntity
  8
Table_Miura_9556-01_2D
100
AcDbVertex
100
AcDb2dVertex
 10
1070.872927822625
 20
1127.119581803038
 30
0.0
  0
SEQEND
  5
115
330
112
100
AcDbEntity
  8
Table_Miura_9556-01_2D
  0
LINE
  5
116
330
1F
100
AcDbEntity
  8
Table_Miura_9556-01_2D
100
AcDbLine
 10
1070.872927822625
 20
1127.119581803038
 30
0.0
 11
1446.709855770874
 21
1502.956568254282
 31
0.0
  0
SPLINE
  5
117
330
1F
100
AcDbEntity
  8
Table_Miura_9556-01_2D
100
AcDbSpline
210
0.0
220
0.0
230
1.0
 70
     8
 71
     3
 72
     9
 73
     5
 74
     0
 42
0.0000000001
 43
0.0000000001
 40
-25.59720475510172
 40
-25.59720475510172
 40
-25.59720475510172
 40
-25.59720475510172
 40
-23.041181434814
 40
-22.35224480279041
 40
-22.35224480279041
 40
-22.35224480279041
 40
-22.35224480279041
 10
1446.709855770874
 20
1502.956568254282
 30
0.0
 10
1447.316877524583
 20
1503.554326582928
 30
0.0
 10
1448.090830910489
 20
1504.31028902201
 30
0.0
 10
1448.884263630501
 20
1505.045417719614
 30
0.0
 10
1449.053544180158
 20
1505.200592554747
 30
0.0
  0
SPLINE
  5
118
330
1F
100
AcDbEntity
  8
Table_Miura_9556-01_2D
100
AcDbSpline
210
0.0
220
0.0
230
1.0
 70
     8
 71
     3
 72
     9
 73
     5
 74
     0
 42
0.0000000001
 43
0.0000000001
 40
-22.35224480279041
 40
-22.35224480279041
 40
-22.35224480279041
 40
-22.35224480279041
 40
-20.7744918917307
 40
-0.3474546757883366
 40
-0.3474546757883366
 40
-0.3474546757883366
 40
-0.3474546757883366
 10
1449.053544180158
 20
1505.200592554747
 30
0.0
 10
1449.440978492552
 20
1505.555742958458
 30
0.0
 10
1454.936987183882
 20
1510.395762696985
 30
0.0
 10
1460.246650560699
 20
1516.027167487859
 30
0.0
 10
1466.601376234732
 20
1518.468139967548
 30
0.0
  0
SPLINE
  5
119
330
1F
100
AcDbEntity
  8
Table_Miura_9556-01_2D
100
AcDbSpline
210
0.0
220
0.0
230
1.0
 70
     8
 71
     3
 72
     9
 73
     5
 74
     0
 42
0.0000000001
 43
0.0000000001
 40
-0.3474546757883366
 40
-0.3474546757883366
 40
-0.3474546757883366
 40
-0.3474546757883366
 40
0.9942450456762122
 40
2.82110455926947
 40
2.82110455926947
 40
2.82110455926947
 40
2.82110455926947
 10
1466.601376234732
 20
1518.468139967548
 30
0.0
 10
1467.018798078673
 20
1518.628479734479
 30
0.0
 10
1468.034005314241
 20
1518.93028111321
 30
0.0
 10
1469.100965855449
 20
1519.071588386918
 30
0.0
 10
1469.708671067281
 20
1519.107955886782
 30
0.0
  0
SPLINE
  5
11A
330
1F
100
AcDbEntity
  8
Table_Miura_9556-01_2D
100
AcDbSpline
210
0.0
220
0.0
230
1.0
 70
    12
 71
     2
 72
     6
 73
     3
 74
     0
 42
0.0000000001
 43
0.0000000001
 40
0.0
 40
0.0
 40
0.0
 40
0.4549953359630085
 40
0.4549953359630085
 40
0.4549953359630085
 10
1469.708671067281
 20
1519.107955886782
 30
0.0
 41
1.0
 10
1469.939763743124
 20
1519.121785392756
 30
0.0
 41
0.9742292604962514
 10
1470.141263662836
 20
1519.23577163061
 30
0.0
 41
1.0
  0
SPLINE
  5
11B
330
1F
100
AcDbEntity
  8
Table_Miura_9556-01_2D
100
AcDbSpline
210
0.0
220
0.0
230
1.0
 70
     8
 71
     3
 72
    13
 73
     9
 74
     0
 42
0.0000000001
 43
0.0000000001
 40
0.0
 40
0.0
 40
0.0
 40
0.0
 40
0.0876034865927682
 40
0.1633834879133184
 40
0.3033602437049218
 40
0.4266564189877514
 40
0.487622525187018
 40
0.563040151376382
 40
0.563040151376382
 40
0.563040151376382
 40
0.563040151376382
 10
1671.138183196626
 20
1127.12078895452
 30
0.0
 10
1671.109139366066
 20
1127.120054452111
 30
0.0
 10
1671.054243732389
 20
1127.115940924746
 30
0.0
 10
1670.956811088938
 20
1127.089365740698
 30
0.0
 10
1670.859285991184
 20
1127.024124745986
 30
0.0
 10
1670.817510927065
 20
1126.918136425319
 30
0.0
 10
1670.832928843044
 20
1126.83099671369
 30
0.0
 10
1670.852562850567
 20
1126.790268441352
 30
0.0
 10
1670.864005424866
 20
1126.767657841124
 30
0.0
  0
SPLINE
  5
11C
330
1F
100
AcDbEntity
  8
Table_Miura_9556-01_2D
100
AcDbSpline
210
0.0
220
0.0
230
1.0
 70
    24
 71
     2
 72
     6
 73
     3
 74
     0
 42
0.0000000001
 43
0.0000000001
 40
0.0
 40
0.0
 40
0.0
 40
0.443128027777323
 40
0.443128027777323
 40
0.443128027777323
 10
1670.864005424866
 20
1126.767657841124
 30
0.0
 10
1670.963124141682
 20
1126.569419216841
 30
0.0
 10
1671.062242858497
 20
1126.371180592558
 30
0.0
  0
SPLINE
  5
11D
330
1F
100
AcDbEntity
  8
Table_Miura_9556-01_2D
100
AcDbSpline
210
0.0
220
0.0
230
1.0
 70
     8
 71
     3
 72
    14
 73
    10
 74
     0
 42
0.0000000001
 43
0.0000000001
 40
0.0
 40
0.0
 40
0.0
 40
0.0
 40
0.1878442759905428
 40
0.377592525096296
 40
0.6122387701456025
 40
0.8889786116689307
 40
1.581028401171428
 40
1.879577165562933
 40
2.132521340345825
 40
2.132521340345825
 40
2.132521340345825
 40
2.132521340345825
 10
1671.062242858497
 20
1126.371180592558
 30
0.0
 10
1671.089841037001
 20
1126.314931155744
 30
0.0
 10
1671.149091883237
 20
1126.203540935475
 30
0.0
 10
1671.26745753079
 20
1126.036965719421
 30
0.0
 10
1671.418186174624
 20
1125.858171609628
 30
0.0
 10
1671.695507670251
 20
1125.568145381133
 30
0.0
 10
1672.007401642693
 20
1125.282647802636
 30
0.0
 10
1672.329698167177
 20
1125.021809221628
 30
0.0
 10
1672.480702010733
 20
1124.916664376572
 30
0.0
 10
1672.551833474262
 20
1124.871214124588
 30
0.0
  0
SPLINE
  5
11E
330
1F
100
AcDbEntity
  8
Table_Miura_9556-01_2D
100
AcDbSpline
210
0.0
220
0.0
230
1.0
 70
     8
 71
     3
 72
    11
 73
     7
 74
     0
 42
0.0000000001
 43
0.0000000001
 40
0.0
 40
0.0
 40
0.0
 40
0.0
 40
3.125176035128539
 40
6.095599655767289
 40
12.14563159808566
 40
24.32538406836998
 40
24.32538406836998
 40
24.32538406836998
 40
24.32538406836998
 10
1672.551833474262
 20
1124.871214124588
 30
0.0
 10
1673.425275793225
 20
1124.303417280166
 30
0.0
 10
1675.169453307513
 20
1123.258128994322
 30
0.0
 10
1678.784276423892
 20
1121.430062952812
 30
0.0
 10
1685.410805566575
 20
1118.921975255373
 30
0.0
 10
1691.486421581314
 20
1118.03365373845
 30
0.0
 10
1695.546466992402
 20
1118.034012076493
 30
0.0
  0
SPLINE
  5
11F
330
1F
100
AcDbEntity
  8
Table_Miura_9556-01_2D
100
AcDbSpline
210
0.0
220
0.0
230
1.0
 70
     8
 71
     3
 72
    12
 73
     8
 74
     0
 42
0.0000000001
 43
0.0000000001
 40
0.0
 40
0.0
 40
0.0
 40
0.0
 40
3.067510030199397
 40
6.111020822346612
 40
12.08884398209748
 40
18.2299956540746
 40
24.32566676622235
 40
24.32566676622235
 40
24.32566676622235
 40
24.32566676622235
 10
1695.546466992402
 20
1118.034012076493
 30
0.0
 10
1696.568977138512
 20
1118.033947814844
 30
0.0
 10
1698.605948785106
 20
1118.109137407867
 30
0.0
 10
1702.614155432599
 20
1118.548530706679
 30
0.0
 10
1707.562943299366
 20
1119.636694483643
 30
0.0
 10
1713.259090120468
 20
1121.7846565681
 30
0.0
 10
1716.837690810889
 20
1123.763873875266
 30
0.0
 10
1718.541276500376
 20
1124.871262984394
 30
0.0
  0
SPLINE
  5
120
330
1F
100
AcDbEntity
  8
Table_Miura_9556-01_2D
100
AcDbSpline
210
0.0
220
0.0
230
1.0
 70
     8
 71
     3
 72
    16
 73
    12
 74
     0
 42
0.0000000001
 43
0.0000000001
 40
0.0
 40
0.0
 40
0.0
 40
0.0
 40
0.1493864394124331
 40
0.2793559016564561
 40
0.5550513490148504
 40
0.8392020165335362
 40
1.095708427849608
 40
1.300439052038603
 40
1.480820944991987
 40
1.644774875639234
 40
1.839449949945527
 40
1.839449949945527
 40
1.839449949945527
 40
1.839449949945527
 10
1718.541276500376
 20
1124.871262984394
 30
0.0
 10
1718.583077624127
 20
1124.898337340138
 30
0.0
 10
1718.660797667207
 20
1124.949703149475
 30
0.0
 10
1718.80761614009
 20
1125.062504861428
 30
0.0
 10
1718.975040790176
 20
1125.220799471668
 30
0.0
 10
1719.148669431088
 20
1125.430990005961
 30
0.0
 10
1719.279718298785
 20
1125.642990926066
 30
0.0
 10
1719.359673257276
 20
1125.842330088449
 30
0.0
 10
1719.388242514497
 20
1126.024785210789
 30
0.0
 10
1719.362328311693
 20
1126.204763739021
 30
0.0
 10
1719.309896879204
 20
1126.313481280482
 30
0.0
 10
1719.280740200279
 20
1126.371254352542
 30
0.0
  0
SPLINE
  5
121
330
1F
100
AcDbEntity
  8
Table_Miura_9556-01_2D
100
AcDbSpline
210
0.0
220
0.0
230
1.0
 70
    24
 71
     2
 72
     6
 73
     3
 74
     0
 42
0.0000000001
 43
0.0000000001
 40
0.0
 40
0.0
 40
0.0
 40
0.4432407273142656
 40
0.4432407273142656
 40
0.4432407273142656
 10
1719.280740200279
 20
1126.371254352542
 30
0.0
 10
1719.181620039538
 20
1126.569493895389
 30
0.0
 10
1719.082499878798
 20
1126.767733438236
 30
0.0
  0
SPLINE
  5
122
330
1F
100
AcDbEntity
  8
Table_Miura_9556-01_2D
100
AcDbSpline
210
0.0
220
0.0
230
1.0
 70
     8
 71
     3
 72
    12
 73
     8
 74
     0
 42
0.0000000001
 43
0.0000000001
 40
0.0
 40
0.0
 40
0.0
 40
0.0
 40
0.0783339057735422
 40
0.1543752911000592
 40
0.3458434999895036
 40
0.5566067183729958
 40
0.745730808072604
 40
0.745730808072604
 40
0.745730808072604
 40
0.745730808072604
 10
1719.082499878798
 20
1126.767733438236
 30
0.0
 10
1719.071065646103
 20
1126.791175121808
 30
0.0
 10
1719.046445756067
 20
1126.836658232833
 30
0.0
 10
1718.969508115538
 20
1126.923502010292
 30
0.0
 10
1718.837556770142
 20
1127.014871168191
 30
0.0
 10
1718.656513282886
 20
1127.095131890044
 30
0.0
 10
1718.524139919405
 20
1127.119014637919
 30
0.0
 10
1718.461087261858
 20
1127.120585545036
 30
0.0
  0
SPLINE
  5
123
330
1F
100
AcDbEntity
  8
Table_Miura_9556-01_2D
100
AcDbSpline
210
0.0
220
0.0
230
1.0
 70
    12
 71
     5
 72
    12
 73
     6
 74
     0
 42
0.0000000001
 43
0.0000000001
 40
0.0589558208107204
 40
0.0589558208107204
 40
0.0589558208107204
 40
0.0589558208107204
 40
0.0589558208107204
 40
0.0589558208107204
 40
0.9432931329715265
 40
0.9432931329715265
 40
0.9432931329715265
 40
0.9432931329715265
 40
0.9432931329715265
 40
0.9432931329715265
 10
1028.904654964681
 20
1127.119175888909
 30
0.0
 41
1.0
 10
1028.775489703384
 20
1127.1156218159
 30
0.0
 41
1.0
 10
1028.608338664302
 20
1127.086881584265
 30
0.0
 41
1.0
 10
1028.255564075304
 20
1126.928625059236
 30
0.0
 41
1.0
 10
1028.174265725414
 20
1126.847326709302
 30
0.0
 41
1.0
 10
1028.092967375429
 20
1126.766028359368
 30
0.0
 41
1.0
  0
SPLINE
  5
124
330
1F
100
AcDbEntity
  8
Table_Miura_9556-01_2D
100
AcDbSpline
210
0.0
220
0.0
230
1.0
 70
    12
 71
     2
 72
     6
 73
     3
 74
     0
 42
0.0000000001
 43
0.0000000001
 40
-0.5606600998610313
 40
-0.5606600998610313
 40
-0.5606600998610313
 40
0.0
 40
0.0
 40
0.0
 10
1028.092967375429
 20
1126.766028359368
 30
0.0
 41
1.0
 10
1027.894744122428
 20
1126.567805053952
 30
0.0
 41
0.9999999999999913
 10
1027.696520817086
 20
1126.369581800702
 30
0.0
 41
1.0
  0
SPLINE
  5
125
330
1F
100
AcDbEntity
  8
Table_Miura_9556-01_2D
100
AcDbSpline
210
0.0
220
0.0
230
1.0
 70
    12
 71
     5
 72
    12
 73
     6
 74
     0
 42
0.0000000001
 43
0.0000000001
 40
0.0
 40
0.0
 40
0.0
 40
0.0
 40
0.0
 40
0.0
 40
0.8739897245742342
 40
0.8739897245742342
 40
0.8739897245742342
 40
0.8739897245742342
 40
0.8739897245742342
 40
0.8739897245742342
 10
1027.696520817086
 20
1126.369581800702
 30
0.0
 41
1.0
 10
1027.588340966778
 20
1126.261401950358
 30
0.0
 41
1.0
 10
1027.4801611165
 20
1126.153222100023
 30
0.0
 41
1.0
 10
1027.406751388249
 20
1126.026478583808
 30
0.0
 41
1.0
 10
1027.373640355022
 20
1125.886559145889
 30
0.0
 41
1.0
 10
1027.375445192652
 20
1125.74340064524
 30
0.0
 41
1.0
  0
SPLINE
  5
126
330
1F
100
AcDbEntity
  8
Table_Miura_9556-01_2D
100
AcDbSpline
210
0.0
220
0.0
230
1.0
 70
    12
 71
     2
 72
     6
 73
     3
 74
     0
 42
0.0000000001
 43
0.0000000001
 40
0.0
 40
0.0
 40
0.0
 40
0.2017970891503139
 40
0.2017970891503139
 40
0.2017970891503139
 10
1027.375445192652
 20
1125.74340064524
 30
0.0
 41
1.0
 10
1027.377236440957
 20
1125.642012690934
 30
0.0
 41
0.9925431650836243
 10
1027.403507247542
 20
1125.544071021715
 30
0.0
 41
1.0
  0
SPLINE
  5
127
330
1F
100
AcDbEntity
  8
Table_Miura_9556-01_2D
100
AcDbSpline
210
0.0
220
0.0
230
1.0
 70
     8
 71
     3
 72
    12
 73
     8
 74
     0
 42
0.0000000001
 43
0.0000000001
 40
0.0
 40
0.0
 40
0.0
 40
0.0
 40
0.0980656229116343
 40
0.2035418359053462
 40
0.4140500476026759
 40
0.6218932345208525
 40
0.8516964985803366
 40
0.8516964985803366
 40
0.8516964985803366
 40
0.8516964985803366
 10
1027.403507247542
 20
1125.544071021715
 30
0.0
 10
1027.411832628222
 20
1125.512443782637
 30
0.0
 10
1027.432497136561
 20
1125.447791086842
 30
0.0
 10
1027.487286266798
 20
1125.320834798336
 30
0.0
 10
1027.578195191819
 20
1125.171085885975
 30
0.0
 10
1027.720265273674
 20
1125.007174846198
 30
0.0
 10
1027.834422241665
 20
1124.915520858935
 30
0.0
 10
1027.896032554814
 20
1124.869273172587
 30
0.0
  0
SPLINE
  5
128
330
1F
100
AcDbEntity
  8
Table_Miura_9556-01_2D
100
AcDbSpline
210
0.0
220
0.0
230
1.0
 70
     8
 71
     3
 72
    11
 73
     7
 74
     0
 42
0.0000000001
 43
0.0000000001
 40
0.0
 40
0.0
 40
0.0
 40
0.0
 40
2.743424606184175
 40
5.414828345882175
 40
10.77592486299058
 40
21.43397361190056
 40
21.43397361190056
 40
21.43397361190056
 40
21.43397361190056
 10
1027.896032554814
 20
1124.869273172587
 30
0.0
 10
1028.624131883483
 20
1124.315277023252
 30
0.0
 10
1030.105397004637
 20
1123.280822252099
 30
0.0
 10
1033.208626185855
 20
1121.467121918268
 30
0.0
 10
1038.943365054971
 20
1118.979486199392
 30
0.0
 10
1044.273623744492
 20
1118.069612217097
 30
0.0
 10
1047.826175674681
 20
1118.034012076493
 30
0.0
  0
SPLINE
  5
129
330
1F
100
AcDbEntity
  8
Table_Miura_9556-01_2D
100
AcDbSpline
210
0.0
220
0.0
230
1.0
 70
    12
 71
     2
 72
     6
 73
     3
 74
     0
 42
0.0000000001
 43
0.0000000001
 40
0.0
 40
0.0
 40
0.0
 40
0.5724594400308637
 40
0.5724594400308637
 40
0.5724594400308637
 10
1047.826175674681
 20
1118.034012076493
 30
0.0
 41
1.0
 10
1048.112397996424
 20
1118.031127134793
 30
0.0
 41
0.9999625809148069
 10
1048.398627390643
 20
1118.033194557923
 30
0.0
 41
1.0
  0
SPLINE
  5
12A
330
1F
100
AcDbEntity
  8
Table_Miura_9556-01_2D
100
AcDbSpline
210
0.0
220
0.0
230
1.0
 70
     8
 71
     3
 72
    12
 73
     8
 74
     0
 42
0.0000000001
 43
0.0000000001
 40
0.0
 40
0.0
 40
0.0
 40
0.0
 40
2.73591608993206
 40
5.43493518296994
 40
10.74089733582064
 40
16.11138166064301
 40
21.52862391160747
 40
21.52862391160747
 40
21.52862391160747
 40
21.52862391160747
 10
1048.398627390643
 20
1118.033194557923
 30
0.0
 10
1049.310588220763
 20
1118.039690766605
 30
0.0
 10
1051.121585851609
 20
1118.127787377431
 30
0.0
 10
1054.674941028089
 20
1118.589013167599
 30
0.0
 10
1059.010034680804
 20
1119.689597605175
 30
0.0
 10
1063.94853038797
 20
1121.828957327267
 30
0.0
 10
1066.985911666337
 20
1123.775616753831
 30
0.0
 10
1068.42341511865
 20
1124.86927232692
 30
0.0
  0
SPLINE
  5
12B
330
1F
100
AcDbEntity
  8
Table_Miura_9556-01_2D
100
AcDbSpline
210
0.0
220
0.0
230
1.0
 70
     8
 71
     3
 72
    12
 73
     8
 74
     0
 42
0.0000000001
 43
0.0000000001
 40
0.0
 40
0.0
 40
0.0
 40
0.0
 40
0.198582148184335
 40
0.4558823293423835
 40
1.173126657775418
 40
1.79495840075012
 40
2.266661781302044
 40
2.266661781302044
 40
2.266661781302044
 40
2.266661781302044
 10
1068.42341511865
 20
1124.86927232692
 30
0.0
 10
1068.476632903426
 20
1124.909494119222
 30
0.0
 10
1068.596118767376
 20
1125.003406409819
 30
0.0
 10
1068.896739676209
 20
1125.253534641838
 30
0.0
 10
1069.298648507443
 20
1125.602301828355
 30
0.0
 10
1069.748313201591
 20
1126.005022028757
 30
0.0
 10
1070.011635550555
 20
1126.257166564047
 30
0.0
 10
1070.122589315203
 20
1126.369242663512
 30
0.0
  0
SPLINE
  5
12C
330
1F
100
AcDbEntity
  8
Table_Miura_9556-01_2D
100
AcDbSpline
210
0.0
220
0.0
230
1.0
 70
    24
 71
     2
 72
     6
 73
     3
 74
     0
 42
0.0000000001
 43
0.0000000001
 40
0.0
 40
0.0
 40
0.0
 40
0.0000154295494115
 40
0.0000154295494115
 40
0.0000154295494115
 10
1070.122589315203
 20
1126.369242663512
 30
0.0
 10
1070.122425563733
 20
1126.369412093464
 30
0.0
 10
1070.122261812263
 20
1126.369581523417
 30
0.0
  0
SPLINE
  5
12D
330
1F
100
AcDbEntity
  8
Table_Miura_9556-01_2D
100
AcDbSpline
210
0.0
220
0.0
230
1.0
 70
    12
 71
     3
 72
     8
 73
     4
 74
     0
 42
0.0000000001
 43
0.0000000001
 40
-0.2806769686640115
 40
-0.2806769686640115
 40
-0.2806769686640115
 40
-0.2806769686640115
 40
0.0
 40
0.0
 40
0.0
 40
0.0
 10
1070.122261812263
 20
1126.369581523417
 30
0.0
 41
1.0
 10
1070.122723707902
 20
1126.369581800132
 30
0.0
 41
1.0
 10
1070.122945795711
 20
1126.369581800693
 30
0.0
 41
1.0
 10
1070.122927935071
 20
1126.369581800163
 30
0.0
 41
1.0
  0
SPLINE
  5
12E
330
1F
100
AcDbEntity
  8
Table_Miura_9556-01_2D
100
AcDbSpline
210
0.0
220
0.0
230
1.0
 70
    24
 71
     2
 72
     6
 73
     3
 74
     0
 42
0.0000000001
 43
0.0000000001
 40
0.0
 40
0.0
 40
0.0
 40
0.559738903496817
 40
0.559738903496817
 40
0.559738903496817
 10
1070.122927935071
 20
1126.369581800163
 30
0.0
 10
1070.320662739656
 20
1126.567642225695
 30
0.0
 10
1070.518397544241
 20
1126.765702651227
 30
0.0
  0
SPLINE
  5
12F
330
1F
100
AcDbEntity
  8
Table_Miura_9556-01_2D
100
AcDbSpline
210
0.0
220
0.0
230
1.0
 70
    12
 71
     3
 72
     8
 73
     4
 74
     0
 42
0.0000000001
 43
0.0000000001
 40
-0.2809667047186584
 40
-0.2809667047186584
 40
-0.2809667047186584
 40
-0.2809667047186584
 40
0.0
 40
0.0
 40
0.0
 40
0.0
 10
1070.518397544241
 20
1126.765702651227
 30
0.0
 41
1.0
 10
1070.519064834128
 20
1126.766025244509
 30
0.0
 41
1.0
 10
1070.519390698095
 20
1126.766028299159
 30
0.0
 41
1.0
 10
1070.519374897911
 20
1126.76602832836
 30
0.0
 41
1.0
  0
SPLINE
  5
130
330
1F
100
AcDbEntity
  8
Table_Miura_9556-01_2D
100
AcDbSpline
210
0.0
220
0.0
230
1.0
 70
     8
 71
     3
 72
    13
 73
     9
 74
     0
 42
0.0000000001
 43
0.0000000001
 40
0.0
 40
0.0
 40
0.0
 40
0.0
 40
0.0759172290794612
 40
0.1358047706645862
 40
0.2547108411286943
 40
0.3727728321327626
 40
0.4326874844364469
 40
0.5009095124335416
 40
0.5009095124335416
 40
0.5009095124335416
 40
0.5009095124335416
 10
1070.519374897911
 20
1126.76602832836
 30
0.0
 10
1070.537321591195
 20
1126.783819607641
 30
0.0
 10
1070.569042258055
 20
1126.816484692966
 30
0.0
 10
1070.610679663173
 20
1126.891520197862
 30
0.0
 10
1070.614164210057
 20
1126.995703206902
 30
0.0
 10
1070.552570797395
 20
1127.080568771639
 30
0.0
 10
1070.475732893054
 20
1127.113496720602
 30
0.0
 10
1070.433188595942
 20
1127.118273316948
 30
0.0
 10
1070.410411898819
 20
1127.1190891643
 30
0.0
  0
SPLINE
  5
131
330
1F
100
AcDbEntity
  8
Table_Miura_9556-01_2D
100
AcDbSpline
210
0.0
220
0.0
230
1.0
 70
     8
 71
     3
 72
    12
 73
     8
 74
     0
 42
0.0000000001
 43
0.0000000001
 40
0.0
 40
0.0
 40
0.0
 40
0.0
 40
0.1167120639292131
 40
0.2430944609352435
 40
0.5000268890606814
 40
0.7758895689378357
 40
1.056331722181715
 40
1.056331722181715
 40
1.056331722181715
 40
1.056331722181715
 10
1466.815653587976
 20
1583.655806599131
 30
0.0
 10
1466.854518292537
 20
1583.654238391035
 30
0.0
 10
1466.935242852411
 20
1583.644480996549
 30
0.0
 10
1467.095839434529
 20
1583.597972741579
 30
0.0
 10
1467.288687895246
 20
1583.486857752013
 30
0.0
 10
1467.472892045029
 20
1583.28400240086
 30
0.0
 10
1467.556846803678
 20
1583.116906517251
 30
0.0
 10
1467.587436887508
 20
1583.028554225084
 30
0.0
  0
SPLINE
  5
132
330
1F
100
AcDbEntity
  8
Table_Miura_9556-01_2D
100
AcDbSpline
210
0.0
220
0.0
230
1.0
 70
    24
 71
     2
 72
     6
 73
     3
 74
     0
 42
0.0000000001
 43
0.0000000001
 40
0.0
 40
0.0
 40
0.0
 40
0.0003644189914382
 40
0.0003644189914382
 40
0.0003644189914382
 10
1454.75198412102
 20
1588.656470114453
 30
0.0
 10
1454.751801911524
 20
1588.656470114428
 30
0.0
 10
1454.751619702029
 20
1588.656470114403
 30
0.0
  0
SPLINE
  5
133
330
1F
100
AcDbEntity
  8
Table_Miura_9556-01_2D
100
AcDbSpline
210
0.0
220
0.0
230
1.0
 70
    12
 71
     2
 72
     6
 73
     3
 74
     0
 42
0.0000000001
 43
0.0000000001
 40
0.0
 40
0.0
 40
0.0
 40
3.028274426341321
 40
3.028274426341321
 40
3.028274426341321
 10
2934.427224791953
 20
1534.294053380134
 30
0.0
 41
1.0
 10
2934.374869789233
 20
1532.780684910316
 30
0.0
 41
0.999864696217075
 10
2934.372324987803
 20
1531.266413238609
 30
0.0
 41
1.0
  0
SPLINE
  5
134
330
1F
100
AcDbEntity
  8
Table_Miura_9556-01_2D
100
AcDbSpline
210
0.0
220
0.0
230
1.0
 70
     8
 71
     3
 72
     8
 73
     4
 74
     0
 42
0.0000000001
 43
0.0000000001
 40
-17.56166272600342
 40
-17.56166272600342
 40
-17.56166272600342
 40
-17.56166272600342
 40
0.0
 40
0.0
 40
0.0
 40
0.0
 10
2934.372324987803
 20
1531.266413238609
 30
0.0
 10
2934.372324998916
 20
1525.412525663274
 30
0.0
 10
2934.372323826517
 20
1519.466884352451
 30
0.0
 10
2934.372323826517
 20
1513.612996777116
 30
0.0
  0
LINE
  5
135
330
1F
100
AcDbEntity
  8
Table_Miura_9556-01_2D
100
AcDbLine
 10
2934.372323826517
 20
1513.612996777116
 30
0.0
 11
2934.372323826517
 21
1127.121261733651
 31
0.0
  0
LINE
  5
136
330
1F
100
AcDbEntity
  8
Table_Miura_9556-01_2D
100
AcDbLine
 10
2934.372323826517
 20
1127.121261733651
 30
0.0
 11
2984.631426108886
 21
1127.121261733651
 31
0.0
  0
LINE
  5
137
330
1F
100
AcDbEntity
  8
Table_Miura_9556-01_2D
100
AcDbLine
 10
2984.631426108886
 20
1127.121261733651
 30
0.0
 11
2984.631426108886
 21
1513.612996777116
 31
0.0
  0
SPLINE
  5
138
330
1F
100
AcDbEntity
  8
Table_Miura_9556-01_2D
100
AcDbSpline
210
0.0
220
0.0
230
1.0
 70
     8
 71
     3
 72
     8
 73
     4
 74
     0
 42
0.0000000001
 43
0.0000000001
 40
0.0
 40
0.0
 40
0.0
 40
0.0
 40
17.56166272600342
 40
17.56166272600342
 40
17.56166272600342
 40
17.56166272600342
 10
2984.631426108886
 20
1513.612996777116
 30
0.0
 10
2984.631426108886
 20
1519.466884352451
 30
0.0
 10
2984.631424936488
 20
1525.412525663274
 30
0.0
 10
2984.631424947601
 20
1531.266413238609
 30
0.0
  0
SPLINE
  5
139
330
1F
100
AcDbEntity
  8
Table_Miura_9556-01_2D
100
AcDbSpline
210
0.0
220
0.0
230
1.0
 70
    12
 71
     2
 72
     6
 73
     3
 74
     0
 42
0.0000000001
 43
0.0000000001
 40
-3.028274426341321
 40
-3.028274426341321
 40
-3.028274426341321
 40
0.0
 40
0.0
 40
0.0
 10
2984.631424947601
 20
1531.266413238609
 30
0.0
 41
1.0
 10
2984.62888014617
 20
1532.780684910316
 30
0.0
 41
0.999864696217075
 10
2984.576525143451
 20
1534.294053380134
 30
0.0
 41
1.0
  0
SPLINE
  5
13A
330
1F
100
AcDbEntity
  8
Table_Miura_9556-01_2D
100
AcDbSpline
210
0.0
220
0.0
230
1.0
 70
     8
 71
     3
 72
    13
 73
     9
 74
     0
 42
0.0000000001
 43
0.0000000001
 40
0.0
 40
0.0
 40
0.0
 40
0.0
 40
0.0787536068012881
 40
0.1449423458634473
 40
0.266120321626831
 40
0.3853723078620238
 40
0.4472243187928732
 40
0.5284135023430945
 40
0.5284135023430945
 40
0.5284135023430945
 40
0.5284135023430945
 10
2608.791983108301
 20
1127.118494133554
 30
0.0
 10
2608.818171757641
 20
1127.117930874415
 30
0.0
 10
2608.866691592352
 20
1127.113437854119
 30
0.0
 10
2608.951322476632
 20
1127.085881436548
 30
0.0
 10
2609.028521359402
 20
1127.008926116868
 30
0.0
 10
2609.033398118726
 20
1126.901456893575
 30
0.0
 10
2608.994117022494
 20
1126.822420521254
 30
0.0
 10
2608.963572204395
 20
1126.785599508252
 30
0.0
 10
2608.945638223445
 20
1126.765307837111
 30
0.0
  0
SPLINE
  5
13B
330
1F
100
AcDbEntity
  8
Table_Miura_9556-01_2D
100
AcDbSpline
210
0.0
220
0.0
230
1.0
 70
    24
 71
     2
 72
     6
 73
     3
 74
     0
 42
0.0000000001
 43
0.0000000001
 40
0.0
 40
0.0
 40
0.0
 40
0.524413613475097
 40
0.524413613475097
 40
0.524413613475097
 10
2608.945638223445
 20
1126.765307837111
 30
0.0
 10
2608.773883762283
 20
1126.566982962157
 30
0.0
 10
2608.602129301121
 20
1126.368658087202
 30
0.0
  0
SPLINE
  5
13C
330
1F
100
AcDbEntity
  8
Table_Miura_9556-01_2D
100
AcDbSpline
210
0.0
220
0.0
230
1.0
 70
     8
 71
     3
 72
    12
 73
     8
 74
     0
 42
0.0000000001
 43
0.0000000001
 40
0.0
 40
0.0
 40
0.0
 40
0.0
 40
0.2152508561583033
 40
0.4345163837059823
 40
1.014949707012151
 40
1.738429140534348
 40
2.240363334908873
 40
2.240363334908873
 40
2.240363334908873
 40
2.240363334908873
 10
2608.602129301121
 20
1126.368658087202
 30
0.0
 10
2608.555090161069
 20
1126.314109352798
 30
0.0
 10
2608.459251835292
 20
1126.20545333992
 30
0.0
 10
2608.222895547771
 20
1125.963269355292
 30
0.0
 10
2607.850890019878
 20
1125.617519109376
 30
0.0
 10
2607.397088411741
 20
1125.222013848726
 30
0.0
 10
2607.078876441106
 20
1124.965612314365
 30
0.0
 10
2606.942235991225
 20
1124.868850911059
 30
0.0
  0
SPLINE
  5
13D
330
1F
100
AcDbEntity
  8
Table_Miura_9556-01_2D
100
AcDbSpline
210
0.0
220
0.0
230
1.0
 70
     8
 71
     3
 72
    12
 73
     8
 74
     0
 42
0.0000000001
 43
0.0000000001
 40
0.0
 40
0.0
 40
0.0
 40
0.0
 40
2.849423647238892
 40
5.573258475154479
 40
11.17057419198277
 40
16.6544972940824
 40
22.23406149512204
 40
22.23406149512204
 40
22.23406149512204
 40
22.23406149512204
 10
2606.942235991225
 20
1124.868850911059
 30
0.0
 10
2606.170005223446
 20
1124.315763155107
 30
0.0
 10
2604.617543255435
 20
1123.292897285765
 30
0.0
 10
2601.361109310421
 20
1121.482106686032
 30
0.0
 10
2597.098783574607
 20
1119.711779325894
 30
0.0
 10
2591.690134505279
 20
1118.382948008828
 30
0.0
 10
2588.005893540269
 20
1118.055734147155
 30
0.0
 10
2586.146173958353
 20
1118.034012076493
 30
0.0
  0
SPLINE
  5
13E
330
1F
100
AcDbEntity
  8
Table_Miura_9556-01_2D
100
AcDbSpline
210
0.0
220
0.0
230
1.0
 70
     8
 71
     5
 72
    12
 73
     6
 74
     0
 42
0.0000000001
 43
0.0000000001
 40
-1.0
 40
-1.0
 40
-1.0
 40
-1.0
 40
-1.0
 40
-1.0
 40
0.0
 40
0.0
 40
0.0
 40
0.0
 40
0.0
 40
0.0
 10
2586.146173958353
 20
1118.034012076493
 30
0.0
 10
2586.063403734252
 20
1118.033045295977
 30
0.0
 10
2585.980630747224
 20
1118.032315061609
 30
0.0
 10
2585.897853216481
 20
1118.031874694145
 30
0.0
 10
2585.815077360528
 20
1118.03163005296
 30
0.0
 10
2585.732301490621
 20
1118.031625236179
 30
0.0
  0
SPLINE
  5
13F
330
1F
100
AcDbEntity
  8
Table_Miura_9556-01_2D
100
AcDbSpline
210
0.0
220
0.0
230
1.0
 70
     8
 71
     3
 72
    12
 73
     8
 74
     0
 42
0.0000000001
 43
0.0000000001
 40
0.0
 40
0.0
 40
0.0
 40
0.0
 40
2.782398956976484
 40
5.60255636646087
 40
11.31396921066574
 40
16.96595331393149
 40
22.64829073387322
 40
22.64829073387322
 40
22.64829073387322
 40
22.64829073387322
 10
2585.732301490621
 20
1118.031625236179
 30
0.0
 10
2584.804829324165
 20
1118.031571265982
 30
0.0
 10
2582.937347415019
 20
1118.104213052133
 30
0.0
 10
2579.188455946994
 20
1118.539930332204
 30
0.0
 10
2574.574281245403
 20
1119.636179497922
 30
0.0
 10
2569.303060548948
 20
1121.802600215531
 30
0.0
 10
2566.062274923605
 20
1123.766509437033
 30
0.0
 10
2564.522006563916
 20
1124.868909015037
 30
0.0
  0
SPLINE
  5
140
330
1F
100
AcDbEntity
  8
Table_Miura_9556-01_2D
100
AcDbSpline
210
0.0
220
0.0
230
1.0
 70
     8
 71
     3
 72
    16
 73
    12
 74
     0
 42
0.0000000001
 43
0.0000000001
 40
0.0
 40
0.0
 40
0.0
 40
0.0
 40
0.1449268675943032
 40
0.2673386247060249
 40
0.5163843678365243
 40
0.7646474073394522
 40
0.9969847930951103
 40
1.194773719318494
 40
1.376962800151374
 40
1.556234553971886
 40
1.789638013214852
 40
1.789638013214852
 40
1.789638013214852
 40
1.789638013214852
 10
2564.522006563916
 20
1124.868909015037
 30
0.0
 10
2564.482631803392
 20
1124.897000725307
 30
0.0
 10
2564.410521079388
 20
1124.94943926685
 30
0.0
 10
2564.279949532896
 20
1125.061860659015
 30
0.0
 10
2564.141559594259
 20
1125.216214019604
 30
0.0
 10
2564.011699346713
 20
1125.422974054623
 30
0.0
 10
2563.929559913076
 20
1125.635022442352
 30
0.0
 10
2563.902575296702
 20
1125.839107257523
 30
0.0
 10
2563.931944104677
 20
1126.025427754154
 30
0.0
 10
2564.020478654188
 20
1126.204991000862
 30
0.0
 10
2564.110244419278
 20
1126.310123466468
 30
0.0
 10
2564.161271940676
 20
1126.368830313735
 30
0.0
  0
SPLINE
  5
141
330
1F
100
AcDbEntity
  8
Table_Miura_9556-01_2D
100
AcDbSpline
210
0.0
220
0.0
230
1.0
 70
    24
 71
     2
 72
     6
 73
     3
 74
     0
 42
0.0000000001
 43
0.0000000001
 40
0.0
 40
0.0
 40
0.0
 40
0.5244495011186676
 40
0.5244495011186676
 40
0.5244495011186676
 10
2564.161271940676
 20
1126.368830313735
 30
0.0
 10
2564.333020306341
 20
1126.567148994054
 30
0.0
 10
2564.504768672005
 20
1126.765467674373
 30
0.0
  0
SPLINE
  5
142
330
1F
100
AcDbEntity
  8
Table_Miura_9556-01_2D
100
AcDbSpline
210
0.0
220
0.0
230
1.0
 70
     8
 71
     3
 72
    12
 73
     8
 74
     0
 42
0.0000000001
 43
0.0000000001
 40
0.0
 40
0.0
 40
0.0
 40
0.0
 40
0.089002379783791
 40
0.1797960093880787
 40
0.4111935266141908
 40
0.6556287843907624
 40
0.8529822444616082
 40
0.8529822444616082
 40
0.8529822444616082
 40
0.8529822444616082
 10
2564.504768672005
 20
1126.765467674373
 30
0.0
 10
2564.52408063384
 20
1126.788195479227
 30
0.0
 10
2564.564874311094
 20
1126.832323539216
 30
0.0
 10
2564.673550952293
 20
1126.916576056718
 30
0.0
 10
2564.840072134328
 20
1127.006833235328
 30
0.0
 10
2565.049579115851
 20
1127.088633584332
 30
0.0
 10
2565.195098477757
 20
1127.116482432816
 30
0.0
 10
2565.260988726729
 20
1127.118266164086
 30
0.0
  0
SPLINE
  5
143
330
1F
100
AcDbEntity
  8
Table_Miura_9556-01_2D
100
AcDbSpline
210
0.0
220
0.0
230
1.0
 70
    12
 71
     3
 72
    15
 73
    11
 74
     0
 42
0.0000000001
 43
0.0000000001
 40
-2.500401592028198
 40
-2.500401592028198
 40
-2.500401592028198
 40
-2.500401592028198
 40
-2.092447594524908
 40
-1.587472916212024
 40
-0.9787609925742227
 40
-0.6090244151814629
 40
0.0
 40
0.0
 40
0.0
 40
0.3719149623461165
 40
0.3719149623461165
 40
0.3719149623461165
 40
0.3719149623461165
 10
2984.501751320812
 20
1587.000496581193
 30
0.0
 41
1.0
 10
2984.521053713801
 20
1586.865881349902
 30
0.0
 41
1.0
 10
2984.554805294229
 20
1586.563367644026
 30
0.0
 41
1.0
 10
2984.590856038775
 20
1586.057372558966
 30
0.0
 41
1.0
 10
2984.613947301962
 20
1585.563421506208
 30
0.0
 41
1.0
 10
2984.634019453802
 20
1585.034645238527
 30
0.0
 41
1.0
 10
2984.645163727007
 20
1584.704037361832
 30
0.0
 41
1.0
 10
2984.652200170206
 20
1584.501151776703
 30
0.0
 41
1.0
 10
2984.656497152536
 20
1584.377254553372
 30
0.0
 41
0.9999990251576337
 10
2984.660558387932
 20
1584.247410992169
 30
0.0
 41
0.9999990251576337
 10
2984.665959539008
 20
1584.123556991129
 30
0.0
 41
1.0
  0
SPLINE
  5
144
330
1F
100
AcDbEntity
  8
Table_Miura_9556-01_2D
100
AcDbSpline
210
0.0
220
0.0
230
1.0
 70
    12
 71
     2
 72
     6
 73
     3
 74
     0
 42
0.0000000001
 43
0.0000000001
 40
-0.8893486808566594
 40
-0.8893486808566594
 40
-0.8893486808566594
 40
0.0
 40
0.0
 40
0.0
 10
2984.665959539008
 20
1584.123556991129
 30
0.0
 41
1.0
 10
2984.69023084342
 20
1583.566990785175
 30
0.0
 41
0.9999953443438412
 10
2984.710167132237
 20
1583.122762194378
 30
0.0
 41
1.0
  0
SPLINE
  5
145
330
1F
100
AcDbEntity
  8
Table_Miura_9556-01_2D
100
AcDbSpline
210
0.0
220
0.0
230
1.0
 70
     8
 71
     3
 72
    16
 73
    12
 74
     0
 42
0.0000000001
 43
0.0000000001
 40
-44.0809111380504
 40
-44.0809111380504
 40
-44.0809111380504
 40
-44.0809111380504
 40
-41.32262018863005
 40
-38.57568005800471
 40
-32.83955618066763
 40
-27.18774927002762
 40
-21.55559266881473
 40
-10.57964571019579
 40
-5.268782545111494
 40
-2.760660175474777
 40
0.0
 40
0.0
 40
0.0
 40
0.0
 10
2984.710167132237
 20
1583.122762194378
 30
0.0
 10
2984.751387391529
 20
1582.204275415563
 30
0.0
 10
2984.860673078979
 20
1580.372173871055
 30
0.0
 10
2985.212768481271
 20
1576.641122410693
 30
0.0
 10
2985.870126632638
 20
1571.973452090475
 30
0.0
 10
2987.003063768935
 20
1566.411450061394
 30
0.0
 10
2988.933162685609
 20
1559.243537484446
 30
0.0
 10
2991.489440610981
 20
1552.382784531994
 30
0.0
 10
2994.256450929509
 20
1546.757404004278
 30
0.0
 10
2995.976715585005
 20
1543.678462159379
 30
0.0
 10
2996.909771362799
 20
1542.15652092399
 30
0.0
 10
2997.393557546584
 20
1541.373902020679
 30
0.0
  0
SPLINE
  5
146
330
1F
100
AcDbEntity
  8
Table_Miura_9556-01_2D
100
AcDbSpline
210
0.0
220
0.0
230
1.0
 70
     8
 71
     3
 72
    18
 73
    14
 74
     0
 42
0.0000000001
 43
0.0000000001
 40
-23.989786789493
 40
-23.989786789493
 40
-23.989786789493
 40
-23.989786789493
 40
-22.58263901442267
 40
-21.34373030388689
 40
-18.62944873608983
 40
-13.20000755298573
 40
-11.39409917538949
 40
-8.514888277655798
 40
-6.682465050476555
 40
-5.425659454196719
 40
-3.282334438373458
 40
-1.290606615411304
 40
0.0
 40
0.0
 40
0.0
 40
0.0
 10
2997.393557546584
 20
1541.373902020679
 30
0.0
 10
2997.64018635059
 20
1540.974931627176
 30
0.0
 10
2998.105419287048
 20
1540.225559305706
 30
0.0
 10
2999.071797961378
 20
1538.722602103908
 30
0.0
 10
3000.817190029581
 20
1536.127051094182
 30
0.0
 10
3002.777730834977
 20
1533.45055539238
 30
0.0
 10
3004.865113614119
 20
1530.802756648615
 30
0.0
 10
3006.251194831849
 20
1529.129569944807
 30
0.0
 10
3007.545781164371
 20
1527.61893922277
 30
0.0
 10
3008.690871732123
 20
1526.303246823718
 30
0.0
 10
3009.87164494545
 20
1524.948280580263
 30
0.0
 10
3011.054274181665
 20
1523.579947128986
 30
0.0
 10
3011.784405593055
 20
1522.735354608389
 30
0.0
 10
3012.066041595226
 20
1522.410149364852
 30
0.0
  0
LINE
  5
147
330
1F
100
AcDbEntity
  8
Table_Miura_9556-01_2D
100
AcDbLine
 10
3012.066041595226
 20
1522.410149364852
 30
0.0
 11
3354.397109378878
 21
1127.12028084389
 31
0.0
  0
LINE
  5
148
330
1F
100
AcDbEntity
  8
Table_Miura_9556-01_2D
100
AcDbLine
 10
3354.397109378878
 20
1127.12028084389
 30
0.0
 11
3309.728675266814
 21
1127.12060457658
 31
0.0
  0
LINE
  5
149
330
1F
100
AcDbEntity
  8
Table_Miura_9556-01_2D
100
AcDbLine
 10
3309.728675266814
 20
1127.12060457658
 30
0.0
 11
2984.631426108886
 21
1502.510573439638
 31
0.0
  0
SPLINE
  5
14A
330
1F
100
AcDbEntity
  8
Table_Miura_9556-01_2D
100
AcDbSpline
210
0.0
220
0.0
230
1.0
 70
    12
 71
     3
 72
    15
 73
    11
 74
     0
 42
0.0000000001
 43
0.0000000001
 40
-2.500401592028198
 40
-2.500401592028198
 40
-2.500401592028198
 40
-2.500401592028198
 40
-2.092447594524908
 40
-1.587472916212024
 40
-0.9787609925742227
 40
-0.6090244151814629
 40
0.0
 40
0.0
 40
0.0
 40
0.3719149623461165
 40
0.3719149623461165
 40
0.3719149623461165
 40
0.3719149623461165
 10
2934.501998614592
 20
1587.000496581193
 30
0.0
 41
1.0
 10
2934.482696221603
 20
1586.865881349902
 30
0.0
 41
1.0
 10
2934.448944641174
 20
1586.563367644026
 30
0.0
 41
1.0
 10
2934.412893896629
 20
1586.057372558966
 30
0.0
 41
1.0
 10
2934.389802633442
 20
1585.563421506208
 30
0.0
 41
1.0
 10
2934.369730481602
 20
1585.034645238527
 30
0.0
 41
1.0
 10
2934.358586208396
 20
1584.704037361832
 30
0.0
 41
1.0
 10
2934.351549765198
 20
1584.501151776703
 30
0.0
 41
1.0
 10
2934.347252782867
 20
1584.377254553372
 30
0.0
 41
0.9999990251576337
 10
2934.343191547471
 20
1584.247410992169
 30
0.0
 41
0.9999990251576337
 10
2934.337790396396
 20
1584.123556991129
 30
0.0
 41
1.0
  0
SPLINE
  5
14B
330
1F
100
AcDbEntity
  8
Table_Miura_9556-01_2D
100
AcDbSpline
210
0.0
220
0.0
230
1.0
 70
    12
 71
     2
 72
     6
 73
     3
 74
     0
 42
0.0000000001
 43
0.0000000001
 40
-0.8893486808566594
 40
-0.8893486808566594
 40
-0.8893486808566594
 40
0.0
 40
0.0
 40
0.0
 10
2934.337790396396
 20
1584.123556991129
 30
0.0
 41
1.0
 10
2934.313519091985
 20
1583.566990785175
 30
0.0
 41
0.9999953443438412
 10
2934.293582803167
 20
1583.122762194378
 30
0.0
 41
1.0
  0
SPLINE
  5
14C
330
1F
100
AcDbEntity
  8
Table_Miura_9556-01_2D
100
AcDbSpline
210
0.0
220
0.0
230
1.0
 70
     8
 71
     3
 72
    16
 73
    12
 74
     0
 42
0.0000000001
 43
0.0000000001
 40
-44.0809111380504
 40
-44.0809111380504
 40
-44.0809111380504
 40
-44.0809111380504
 40
-41.32262018863005
 40
-38.57568005800471
 40
-32.83955618066763
 40
-27.18774927002762
 40
-21.55559266881473
 40
-10.57964571019579
 40
-5.268782545111494
 40
-2.760660175474777
 40
0.0
 40
0.0
 40
0.0
 40
0.0
 10
2934.293582803167
 20
1583.122762194378
 30
0.0
 10
2934.252362543875
 20
1582.204275415563
 30
0.0
 10
2934.143076856425
 20
1580.372173871055
 30
0.0
 10
2933.790981454133
 20
1576.641122410693
 30
0.0
 10
2933.133623302766
 20
1571.973452090475
 30
0.0
 10
2932.000686166469
 20
1566.411450061394
 30
0.0
 10
2930.070587249795
 20
1559.243537484446
 30
0.0
 10
2927.514309324423
 20
1552.382784531994
 30
0.0
 10
2924.747299005895
 20
1546.757404004278
 30
0.0
 10
2923.027034350399
 20
1543.678462159379
 30
0.0
 10
2922.093978572605
 20
1542.15652092399
 30
0.0
 10
2921.61019238882
 20
1541.373902020679
 30
0.0
  0
SPLINE
  5
14D
330
1F
100
AcDbEntity
  8
Table_Miura_9556-01_2D
100
AcDbSpline
210
0.0
220
0.0
230
1.0
 70
     8
 71
     3
 72
    18
 73
    14
 74
     0
 42
0.0000000001
 43
0.0000000001
 40
-23.989786789493
 40
-23.989786789493
 40
-23.989786789493
 40
-23.989786789493
 40
-22.58263901442267
 40
-21.34373030388689
 40
-18.62944873608983
 40
-13.20000755298573
 40
-11.39409917538949
 40
-8.514888277655798
 40
-6.682465050476555
 40
-5.425659454196719
 40
-3.282334438373458
 40
-1.290606615411304
 40
0.0
 40
0.0
 40
0.0
 40
0.0
 10
2921.61019238882
 20
1541.373902020679
 30
0.0
 10
2921.363563584814
 20
1540.974931627176
 30
0.0
 10
2920.898330648356
 20
1540.225559305706
 30
0.0
 10
2919.931951974026
 20
1538.722602103908
 30
0.0
 10
2918.186559905823
 20
1536.127051094182
 30
0.0
 10
2916.226019100427
 20
1533.45055539238
 30
0.0
 10
2914.138636321285
 20
1530.802756648615
 30
0.0
 10
2912.752555103555
 20
1529.129569944807
 30
0.0
 10
2911.457968771033
 20
1527.61893922277
 30
0.0
 10
2910.312878203281
 20
1526.303246823718
 30
0.0
 10
2909.132104989953
 20
1524.948280580263
 30
0.0
 10
2907.949475753739
 20
1523.579947128986
 30
0.0
 10
2907.219344342349
 20
1522.735354608389
 30
0.0
 10
2906.937708340178
 20
1522.410149364852
 30
0.0
  0
LINE
  5
14E
330
1F
100
AcDbEntity
  8
Table_Miura_9556-01_2D
100
AcDbLine
 10
2906.937708340178
 20
1522.410149364852
 30
0.0
 11
2564.604573492181
 21
1127.117894003576
 31
0.0
  0
LINE
  5
14F
330
1F
100
AcDbEntity
  8
Table_Miura_9556-01_2D
100
AcDbLine
 10
2564.604573492181
 20
1127.117894003576
 30
0.0
 11
2609.273007604244
 21
1127.118217736265
 31
0.0
  0
LINE
  5
150
330
1F
100
AcDbEntity
  8
Table_Miura_9556-01_2D
100
AcDbLine
 10
2609.273007604244
 20
1127.118217736265
 30
0.0
 11
2934.372323826517
 21
1502.510573439638
 31
0.0
  0
SPLINE
  5
151
330
1F
100
AcDbEntity
  8
Table_Miura_9556-01_2D
100
AcDbSpline
210
0.0
220
0.0
230
1.0
 70
    12
 71
     3
 72
    18
 73
    14
 74
     0
 42
0.0000000001
 43
0.0000000001
 40
-17.08061118246446
 40
-17.08061118246446
 40
-17.08061118246446
 40
-17.08061118246446
 40
-15.57895392647034
 40
-15.57895392647034
 40
-15.57895392647034
 40
-11.24807156559795
 40
-11.24807156559795
 40
-11.24807156559795
 40
-8.873594413233326
 40
-6.279800604855796
 40
-3.187801552011507
 40
-1.394045745757029
 40
0.0
 40
0.0
 40
0.0
 40
0.0
 10
2939.007624442163
 20
1583.655896160089
 30
0.0
 41
1.0
 10
2938.453775303541
 20
1583.637208722719
 30
0.0
 41
0.8207490813200228
 10
2938.06158813284
 20
1583.245523314805
 30
0.0
 41
0.8207490813200228
 10
2938.041962661992
 20
1582.691469843954
 30
0.0
 41
1.0
 10
2937.990547241069
 20
1581.248431555925
 30
0.0
 41
0.9999156577956789
 10
2937.916172508253
 20
1579.80631141686
 30
0.0
 41
0.9999156577956789
 10
2937.818857282331
 20
1578.365474321533
 30
0.0
 41
1.0
 10
2937.765615339559
 20
1577.575126186909
 30
0.0
 41
1.0
 10
2937.641540534434
 20
1575.923642417921
 30
0.0
 41
1.0
 10
2937.401429240755
 20
1573.24757843365
 30
0.0
 41
1.0
 10
2937.150389293578
 20
1570.767038434143
 30
0.0
 41
1.0
 10
2936.926407781408
 20
1568.685785579608
 30
0.0
 41
1.0
 10
2936.808185780301
 20
1567.627644705277
 30
0.0
 41
1.0
 10
2936.754417979384
 20
1567.16608180204
 30
0.0
 41
1.0
  0
SPLINE
  5
152
330
1F
100
AcDbEntity
  8
Table_Miura_9556-01_2D
100
AcDbSpline
210
0.0
220
0.0
230
1.0
 70
     8
 71
     3
 72
    16
 73
    12
 74
     0
 42
0.0000000001
 43
0.0000000001
 40
-33.3642801434906
 40
-33.3642801434906
 40
-33.3642801434906
 40
-33.3642801434906
 40
-24.17426881783292
 40
-19.70973193739507
 40
-17.41415730793448
 40
-12.69286067967022
 40
-10.39643749466709
 40
-6.695123544693319
 40
-3.023047667395003
 40
-1.441026840298903
 40
0.0
 40
0.0
 40
0.0
 40
0.0
 10
2936.754417979384
 20
1567.16608180204
 30
0.0
 10
2936.399958771522
 20
1564.12327145321
 30
0.0
 10
2935.790835647283
 20
1559.612226557084
 30
0.0
 10
2934.986716904344
 20
1554.356674102208
 30
0.0
 10
2934.38920735914
 20
1550.57644502862
 30
0.0
 10
2933.895420191989
 20
1547.511553955128
 30
0.0
 10
2933.339992610048
 20
1543.981946879253
 30
0.0
 10
2932.862089131492
 20
1540.794275227209
 30
0.0
 10
2932.477554737922
 20
1537.833702433966
 30
0.0
 10
2932.250543288814
 20
1535.613412004092
 30
0.0
 10
2932.169903254297
 20
1534.608915480789
 30
0.0
 10
2932.137565542375
 20
1534.129438899218
 30
0.0
  0
SPLINE
  5
153
330
1F
100
AcDbEntity
  8
Table_Miura_9556-01_2D
100
AcDbSpline
210
0.0
220
0.0
230
1.0
 70
     8
 71
     3
 72
    12
 73
     8
 74
     0
 42
0.0000000001
 43
0.0000000001
 40
-2.866008512548971
 40
-2.866008512548971
 40
-2.866008512548971
 40
-2.866008512548971
 40
-2.1803500891602
 40
-1.316467333291305
 40
-0.6436630852735566
 40
-0.3236325452860642
 40
0.0
 40
0.0
 40
0.0
 40
0.0
 10
2932.137565542375
 20
1534.129438899218
 30
0.0
 10
2932.1220268979
 20
1533.901191584962
 30
0.0
 10
2932.094427520587
 20
1533.385409002755
 30
0.0
 10
2932.062681611578
 20
1532.645289905737
 30
0.0
 10
2932.045271624078
 20
1532.02661098069
 30
0.0
 10
2932.039429736735
 20
1531.58781648486
 30
0.0
 10
2932.038204860706
 20
1531.373269075215
 30
0.0
 10
2932.038202667804
 20
1531.265378721683
 30
0.0
  0
SPLINE
  5
154
330
1F
100
AcDbEntity
  8
Table_Miura_9556-01_2D
100
AcDbSpline
210
0.0
220
0.0
230
1.0
 70
     8
 71
     3
 72
    13
 73
     9
 74
     0
 42
0.0000000001
 43
0.0000000001
 40
-8.067492795701002
 40
-8.067492795701002
 40
-8.067492795701002
 40
-8.067492795701002
 40
-6.929436622567084
 40
-5.933962300934526
 40
-4.0143213514352
 40
-2.037649979843423
 40
-1.015652899145925
 40
0.0
 40
0.0
 40
0.0
 40
0.0
 10
2932.038202667804
 20
1531.265378721683
 30
0.0
 10
2932.037549373763
 20
1530.886035740617
 30
0.0
 10
2932.051236954944
 20
1530.174658129026
 30
0.0
 10
2932.169862603467
 20
1528.827877459257
 30
0.0
 10
2932.514637997439
 20
1527.227984545342
 30
0.0
 10
2933.137056875787
 20
1525.70447682692
 30
0.0
 10
2933.792152300852
 20
1524.536857599852
 30
0.0
 10
2934.172188651851
 20
1523.972928006003
 30
0.0
 10
2934.372324995279
 20
1523.699984703541
 30
0.0
  0
SPLINE
  5
155
330
1F
100
AcDbEntity
  8
Table_Miura_9556-01_2D
100
AcDbSpline
210
0.0
220
0.0
230
1.0
 70
     8
 71
     3
 72
    13
 73
     9
 74
     0
 42
0.0000000001
 43
0.0000000001
 40
0.0
 40
0.0
 40
0.0
 40
0.0
 40
0.0902184704601651
 40
0.1761896442498796
 40
0.3455632779639898
 40
0.4948657560424342
 40
0.556563220459395
 40
0.6273565859503734
 40
0.6273565859503734
 40
0.6273565859503734
 40
0.6273565859503734
 10
2984.061178526243
 20
1127.120541818681
 30
0.0
 10
2984.091256211221
 20
1127.119485293463
 30
0.0
 10
2984.149823058586
 20
1127.114321614216
 30
0.0
 10
2984.261931481
 20
1127.085403866903
 30
0.0
 10
2984.382083970522
 20
1127.021172852985
 30
0.0
 10
2984.469746833149
 20
1126.925690241274
 30
0.0
 10
2984.501598108011
 20
1126.835760384917
 30
0.0
 10
2984.502354832732
 20
1126.791270107989
 30
0.0
 10
2984.502343754099
 20
1126.76770826565
 30
0.0
  0
SPLINE
  5
156
330
1F
100
AcDbEntity
  8
Table_Miura_9556-01_2D
100
AcDbSpline
210
0.0
220
0.0
230
1.0
 70
    24
 71
     2
 72
     6
 73
     3
 74
     0
 42
0.0000000001
 43
0.0000000001
 40
0.0
 40
0.0
 40
0.0
 40
0.3964465280210447
 40
0.3964465280210447
 40
0.3964465280210447
 10
2984.502343754099
 20
1126.76770826565
 30
0.0
 10
2984.502330371
 20
1126.569485001728
 30
0.0
 10
2984.5023169879
 20
1126.371261737806
 30
0.0
  0
SPLINE
  5
157
330
1F
100
AcDbEntity
  8
Table_Miura_9556-01_2D
100
AcDbSpline
210
0.0
220
0.0
230
1.0
 70
     8
 71
     3
 72
    17
 73
    13
 74
     0
 42
0.0000000001
 43
0.0000000001
 40
0.0
 40
0.0
 40
0.0
 40
0.0
 40
0.0962064271533508
 40
0.1738289297854392
 40
0.3373064891879649
 40
0.5367070411386231
 40
0.7755987407383972
 40
1.076140845210532
 40
1.396849041230197
 40
1.692620935227627
 40
1.823404523223936
 40
1.966221085738845
 40
1.966221085738845
 40
1.966221085738845
 40
1.966221085738845
 10
2984.5023169879
 20
1126.371261737806
 30
0.0
 10
2984.502400673828
 20
1126.339179112657
 30
0.0
 10
2984.501961161064
 20
1126.281243427288
 30
0.0
 10
2984.489259886894
 20
1126.169236656611
 30
0.0
 10
2984.446244062393
 20
1126.027979952573
 30
0.0
 10
2984.352365376934
 20
1125.84999461934
 30
0.0
 10
2984.210106619065
 20
1125.648571744334
 30
0.0
 10
2984.022269227372
 20
1125.43154101873
 30
0.0
 10
2983.804247566321
 20
1125.217013474201
 30
0.0
 10
2983.613572534506
 20
1125.056372562121
 30
0.0
 10
2983.45954867421
 20
1124.945327294508
 30
0.0
 10
2983.382532608261
 20
1124.896427261305
 30
0.0
 10
2983.342108673415
 20
1124.871248868151
 30
0.0
  0
SPLINE
  5
158
330
1F
100
AcDbEntity
  8
Table_Miura_9556-01_2D
100
AcDbSpline
210
0.0
220
0.0
230
1.0
 70
    24
 71
     2
 72
     6
 73
     3
 74
     0
 42
0.0000000001
 43
0.0000000001
 40
0.0
 40
0.0
 40
0.0
 40
0.0002028258160686
 40
0.0002028258160686
 40
0.0002028258160686
 10
2983.342108673415
 20
1124.871248868151
 30
0.0
 10
2983.341779621196
 20
1124.871042433304
 30
0.0
 10
2983.341450568977
 20
1124.870835998458
 30
0.0
  0
SPLINE
  5
159
330
1F
100
AcDbEntity
  8
Table_Miura_9556-01_2D
100
AcDbSpline
210
0.0
220
0.0
230
1.0
 70
     8
 71
     3
 72
    25
 73
    21
 74
     0
 42
0.0000000001
 43
0.0000000001
 40
0.0
 40
0.0
 40
0.0
 40
0.0
 40
3.199587773031225
 40
6.339228569859388
 40
12.50824278581488
 40
18.76926702610335
 40
21.92722116738235
 40
23.54279560344114
 40
24.35060102343449
 40
24.73612324148421
 40
24.93803802146848
 40
25.02982611215962
 40
25.08490533980845
 40
25.10555096506041
 40
25.11462558692914
 40
25.12056925615265
 40
25.12388541331136
 40
25.12423612731493
 40
25.12438763465248
 40
25.12589178241075
 40
25.12589178241075
 40
25.12589178241075
 40
25.12589178241075
 10
2983.341450568977
 20
1124.870835998458
 30
0.0
 10
2982.436486334727
 20
1124.305422308957
 30
0.0
 10
2980.604531175865
 20
1123.249732135994
 30
0.0
 10
2976.85293235346
 20
1121.424782260069
 30
0.0
 10
2971.964679301674
 20
1119.645293596751
 30
0.0
 10
2966.871403998538
 20
1118.555444766232
 30
0.0
 10
2963.211655092054
 20
1118.165954643028
 30
0.0
 10
2961.353605572749
 20
1118.06658616921
 30
0.0
 10
2960.41758859592
 20
1118.042029472958
 30
0.0
 10
2959.952553713728
 20
1118.035935254715
 30
0.0
 10
2959.726149155399
 20
1118.034495073466
 30
0.0
 10
2959.609891581537
 20
1118.034117964184
 30
0.0
 10
2959.55405395817
 20
1118.034037687303
 30
0.0
 10
2959.525788031894
 20
1118.034016934764
 30
0.0
 10
2959.513900092235
 20
1118.034013524696
 30
0.0
 10
2959.507830053176
 20
1118.03401226788
 30
0.0
 10
2959.504452247455
 20
1118.034012208539
 30
0.0
 10
2959.503825222308
 20
1118.034012048493
 30
0.0
 10
2959.503814685561
 20
1118.03401213309
 30
0.0
 10
2959.503051587651
 20
1118.034012113715
 30
0.0
 10
2959.502563251173
 20
1118.034012116184
 30
0.0
  0
SPLINE
  5
15A
330
1F
100
AcDbEntity
  8
Table_Miura_9556-01_2D
100
AcDbSpline
210
0.0
220
0.0
230
1.0
 70
     8
 71
     3
 72
    24
 73
    20
 74
     0
 42
0.0000000001
 43
0.0000000001
 40
0.0
 40
0.0
 40
0.0
 40
0.0
 40
0.0020036010011362
 40
0.0022547111983818
 40
0.0025058213949665
 40
0.0056257993940696
 40
0.01124053246391
 40
0.0196887687649597
 40
0.0391810618565542
 40
0.0782064054598164
 40
0.188361477556041
 40
0.3719392572807771
 40
0.7758219389144186
 40
1.546888493465523
 40
3.125770128968859
 40
6.302017912663969
 40
12.52633999462964
 40
18.76876323914056
 40
25.12624730574042
 40
25.12624730574042
 40
25.12624730574042
 40
25.12624730574042
 10
2959.502563251173
 20
1118.034012116184
 30
0.0
 10
2959.501893286237
 20
1118.034012113772
 30
0.0
 10
2959.500943208956
 20
1118.034012141614
 30
0.0
 10
2959.500770648352
 20
1118.034012050991
 30
0.0
 10
2959.500573245855
 20
1118.034012175033
 30
0.0
 10
2959.496719915403
 20
1118.034012340603
 30
0.0
 10
2959.491589375569
 20
1118.034013177705
 30
0.0
 10
2959.479942718315
 20
1118.034016903775
 30
0.0
 10
2959.458170737325
 20
1118.03403084481
 30
0.0
 10
2959.401446001659
 20
1118.034103318132
 30
0.0
 10
2959.290828419473
 20
1118.034431029807
 30
0.0
 10
2959.058139190806
 20
1118.035882369602
 30
0.0
 10
2958.60541702884
 20
1118.041682525575
 30
0.0
 10
2957.68771152486
 20
1118.065474358586
 30
0.0
 10
2955.84792151672
 20
1118.161485536829
 30
0.0
 10
2952.205883358709
 20
1118.544009005489
 30
0.0
 10
2947.092955546989
 20
1119.629111401617
 30
0.0
 10
2941.180007181724
 20
1121.773658232641
 30
0.0
 10
2937.461071444432
 20
1123.747812380073
 30
0.0
 10
2935.663147612065
 20
1124.870869997589
 30
0.0
  0
SPLINE
  5
15B
330
1F
100
AcDbEntity
  8
Table_Miura_9556-01_2D
100
AcDbSpline
210
0.0
220
0.0
230
1.0
 70
     8
 71
     3
 72
    17
 73
    13
 74
     0
 42
0.0000000001
 43
0.0000000001
 40
0.0
 40
0.0
 40
0.0
 40
0.0
 40
0.1433371388019667
 40
0.27412170485795
 40
0.5698915548390706
 40
0.891163767339524
 40
1.191151497005545
 40
1.428512647803955
 40
1.62846324815081
 40
1.792814010234205
 40
1.870845827558682
 40
1.966221106772676
 40
1.966221106772676
 40
1.966221106772676
 40
1.966221106772676
 10
2935.663147612065
 20
1124.870869997589
 30
0.0
 10
2935.621969055402
 20
1124.896517198959
 30
0.0
 10
2935.544811975101
 20
1124.945520533414
 30
0.0
 10
2935.390668277447
 20
1125.056694723344
 30
0.0
 10
2935.199875954756
 20
1125.217488323107
 30
0.0
 10
2934.981891041168
 20
1125.432056604368
 30
0.0
 10
2934.79443390517
 20
1125.648748539807
 30
0.0
 10
2934.652474283631
 20
1125.849746480488
 30
0.0
 10
2934.558509531917
 20
1126.027650167887
 30
0.0
 10
2934.515273808264
 20
1126.169482575155
 30
0.0
 10
2934.502690685653
 20
1126.281667689872
 30
0.0
 10
2934.502231993833
 20
1126.339444868873
 30
0.0
 10
2934.502332984641
 20
1126.371261737806
 30
0.0
  0
SPLINE
  5
15C
330
1F
100
AcDbEntity
  8
Table_Miura_9556-01_2D
100
AcDbSpline
210
0.0
220
0.0
230
1.0
 70
    24
 71
     2
 72
     6
 73
     3
 74
     0
 42
0.0000000001
 43
0.0000000001
 40
0.0
 40
0.0
 40
0.0
 40
0.3964465280210447
 40
0.3964465280210447
 40
0.3964465280210447
 10
2934.502332984641
 20
1126.371261737806
 30
0.0
 10
2934.502319601541
 20
1126.569485001728
 30
0.0
 10
2934.502306218442
 20
1126.76770826565
 30
0.0
  0
SPLINE
  5
15D
330
1F
100
AcDbEntity
  8
Table_Miura_9556-01_2D
100
AcDbSpline
210
0.0
220
0.0
230
1.0
 70
     8
 71
     3
 72
    12
 73
     8
 74
     0
 42
0.0000000001
 43
0.0000000001
 40
0.0
 40
0.0
 40
0.0
 40
0.0
 40
0.0709674213457879
 40
0.1335862693815868
 40
0.2813937667583465
 40
0.4525062216949927
 40
0.6273569207154127
 40
0.6273569207154127
 40
0.6273569207154127
 40
0.6273569207154127
 10
2934.502306218442
 20
1126.76770826565
 30
0.0
 10
2934.502196886589
 20
1126.791327007628
 30
0.0
 10
2934.503180143374
 20
1126.836182980044
 30
0.0
 10
2934.535089339101
 20
1126.925962583716
 30
0.0
 10
2934.623043911919
 20
1127.021415346371
 30
0.0
 10
2934.769907157826
 20
1127.100122458856
 30
0.0
 10
2934.885298660414
 20
1127.119056303593
 30
0.0
 10
2934.943471755997
 20
1127.12053533659
 30
0.0
  0
SPLINE
  5
15E
330
1F
100
AcDbEntity
  8
Table_Miura_9556-01_2D
100
AcDbSpline
210
0.0
220
0.0
230
1.0
 70
    12
 71
     3
 72
    18
 73
    14
 74
     0
 42
0.0000000001
 43
0.0000000001
 40
-17.08061118246446
 40
-17.08061118246446
 40
-17.08061118246446
 40
-17.08061118246446
 40
-15.57895392647034
 40
-15.57895392647034
 40
-15.57895392647034
 40
-11.24807156559795
 40
-11.24807156559795
 40
-11.24807156559795
 40
-8.873594413233326
 40
-6.279800604855796
 40
-3.187801552011507
 40
-1.394045745757029
 40
0.0
 40
0.0
 40
0.0
 40
0.0
 10
2979.996125493241
 20
1583.655896160089
 30
0.0
 41
1.0
 10
2980.549974631863
 20
1583.637208722719
 30
0.0
 41
0.8207490813200228
 10
2980.942161802564
 20
1583.245523314805
 30
0.0
 41
0.8207490813200228
 10
2980.961787273412
 20
1582.691469843954
 30
0.0
 41
1.0
 10
2981.013202694335
 20
1581.248431555925
 30
0.0
 41
0.9999156577956789
 10
2981.087577427151
 20
1579.80631141686
 30
0.0
 41
0.9999156577956789
 10
2981.184892653073
 20
1578.365474321533
 30
0.0
 41
1.0
 10
2981.238134595845
 20
1577.575126186909
 30
0.0
 41
1.0
 10
2981.36220940097
 20
1575.923642417921
 30
0.0
 41
1.0
 10
2981.602320694649
 20
1573.24757843365
 30
0.0
 41
1.0
 10
2981.853360641826
 20
1570.767038434143
 30
0.0
 41
1.0
 10
2982.077342153996
 20
1568.685785579608
 30
0.0
 41
1.0
 10
2982.195564155103
 20
1567.627644705277
 30
0.0
 41
1.0
 10
2982.249331956019
 20
1567.16608180204
 30
0.0
 41
1.0
  0
SPLINE
  5
15F
330
1F
100
AcDbEntity
  8
Table_Miura_9556-01_2D
100
AcDbSpline
210
0.0
220
0.0
230
1.0
 70
     8
 71
     3
 72
    16
 73
    12
 74
     0
 42
0.0000000001
 43
0.0000000001
 40
-33.3642801434906
 40
-33.3642801434906
 40
-33.3642801434906
 40
-33.3642801434906
 40
-24.17426881783292
 40
-19.70973193739507
 40
-17.41415730793448
 40
-12.69286067967022
 40
-10.39643749466709
 40
-6.695123544693319
 40
-3.023047667395003
 40
-1.441026840298903
 40
0.0
 40
0.0
 40
0.0
 40
0.0
 10
2982.249331956019
 20
1567.16608180204
 30
0.0
 10
2982.603791163882
 20
1564.12327145321
 30
0.0
 10
2983.212914288121
 20
1559.612226557084
 30
0.0
 10
2984.01703303106
 20
1554.356674102208
 30
0.0
 10
2984.614542576264
 20
1550.57644502862
 30
0.0
 10
2985.108329743415
 20
1547.511553955128
 30
0.0
 10
2985.663757325356
 20
1543.981946879253
 30
0.0
 10
2986.141660803912
 20
1540.794275227209
 30
0.0
 10
2986.526195197482
 20
1537.833702433966
 30
0.0
 10
2986.75320664659
 20
1535.613412004092
 30
0.0
 10
2986.833846681106
 20
1534.608915480789
 30
0.0
 10
2986.866184393029
 20
1534.129438899218
 30
0.0
  0
SPLINE
  5
160
330
1F
100
AcDbEntity
  8
Table_Miura_9556-01_2D
100
AcDbSpline
210
0.0
220
0.0
230
1.0
 70
     8
 71
     3
 72
    12
 73
     8
 74
     0
 42
0.0000000001
 43
0.0000000001
 40
-2.866008512548971
 40
-2.866008512548971
 40
-2.866008512548971
 40
-2.866008512548971
 40
-2.1803500891602
 40
-1.316467333291305
 40
-0.6436630852735566
 40
-0.3236325452860642
 40
0.0
 40
0.0
 40
0.0
 40
0.0
 10
2986.866184393029
 20
1534.129438899218
 30
0.0
 10
2986.881723037503
 20
1533.901191584962
 30
0.0
 10
2986.909322414817
 20
1533.385409002755
 30
0.0
 10
2986.941068323826
 20
1532.645289905737
 30
0.0
 10
2986.958478311326
 20
1532.02661098069
 30
0.0
 10
2986.964320198669
 20
1531.58781648486
 30
0.0
 10
2986.965545074698
 20
1531.373269075215
 30
0.0
 10
2986.9655472676
 20
1531.265378721683
 30
0.0
  0
SPLINE
  5
161
330
1F
100
AcDbEntity
  8
Table_Miura_9556-01_2D
100
AcDbSpline
210
0.0
220
0.0
230
1.0
 70
     8
 71
     3
 72
    13
 73
     9
 74
     0
 42
0.0000000001
 43
0.0000000001
 40
-8.067492795701002
 40
-8.067492795701002
 40
-8.067492795701002
 40
-8.067492795701002
 40
-6.929436622567084
 40
-5.933962300934526
 40
-4.0143213514352
 40
-2.037649979843423
 40
-1.015652899145925
 40
0.0
 40
0.0
 40
0.0
 40
0.0
 10
2986.9655472676
 20
1531.265378721683
 30
0.0
 10
2986.966200561641
 20
1530.886035740617
 30
0.0
 10
2986.95251298046
 20
1530.174658129026
 30
0.0
 10
2986.833887331937
 20
1528.827877459257
 30
0.0
 10
2986.489111937965
 20
1527.227984545342
 30
0.0
 10
2985.866693059617
 20
1525.70447682692
 30
0.0
 10
2985.211597634552
 20
1524.536857599852
 30
0.0
 10
2984.831561283553
 20
1523.972928006003
 30
0.0
 10
2984.631424940125
 20
1523.699984703541
 30
0.0
  0
SPLINE
  5
162
330
1F
100
AcDbEntity
  8
Table_Miura_9556-01_2D
100
AcDbSpline
210
0.0
220
0.0
230
1.0
 70
     8
 71
     3
 72
    13
 73
     9
 74
     0
 42
0.0000000001
 43
0.0000000001
 40
0.0
 40
0.0
 40
0.0
 40
0.0
 40
0.0787536068012881
 40
0.1449423458634473
 40
0.266120321626831
 40
0.3853723078620238
 40
0.4472243187928732
 40
0.5284135023430945
 40
0.5284135023430945
 40
0.5284135023430945
 40
0.5284135023430945
 10
3310.209699762758
 20
1127.120880973868
 30
0.0
 10
3310.183511113418
 20
1127.120317714729
 30
0.0
 10
3310.134991278706
 20
1127.115824694433
 30
0.0
 10
3310.050360394426
 20
1127.088268276862
 30
0.0
 10
3309.973161511657
 20
1127.011312957183
 30
0.0
 10
3309.968284752333
 20
1126.903843733889
 30
0.0
 10
3310.007565848565
 20
1126.824807361568
 30
0.0
 10
3310.038110666664
 20
1126.787986348566
 30
0.0
 10
3310.056044647614
 20
1126.767694677425
 30
0.0
  0
SPLINE
  5
163
330
1F
100
AcDbEntity
  8
Table_Miura_9556-01_2D
100
AcDbSpline
210
0.0
220
0.0
230
1.0
 70
    24
 71
     2
 72
     6
 73
     3
 74
     0
 42
0.0000000001
 43
0.0000000001
 40
0.0
 40
0.0
 40
0.0
 40
0.524413613475097
 40
0.524413613475097
 40
0.524413613475097
 10
3310.056044647614
 20
1126.767694677425
 30
0.0
 10
3310.227799108776
 20
1126.569369802471
 30
0.0
 10
3310.399553569938
 20
1126.371044927517
 30
0.0
  0
SPLINE
  5
164
330
1F
100
AcDbEntity
  8
Table_Miura_9556-01_2D
100
AcDbSpline
210
0.0
220
0.0
230
1.0
 70
     8
 71
     3
 72
    12
 73
     8
 74
     0
 42
0.0000000001
 43
0.0000000001
 40
0.0
 40
0.0
 40
0.0
 40
0.0
 40
0.2152508561583033
 40
0.4345163837059823
 40
1.014949707012151
 40
1.738429140534348
 40
2.240363334908873
 40
2.240363334908873
 40
2.240363334908873
 40
2.240363334908873
 10
3310.399553569938
 20
1126.371044927517
 30
0.0
 10
3310.44659270999
 20
1126.316496193112
 30
0.0
 10
3310.542431035767
 20
1126.207840180234
 30
0.0
 10
3310.778787323287
 20
1125.965656195606
 30
0.0
 10
3311.150792851181
 20
1125.61990594969
 30
0.0
 10
3311.604594459318
 20
1125.22440068904
 30
0.0
 10
3311.922806429952
 20
1124.967999154679
 30
0.0
 10
3312.059446879834
 20
1124.871237751373
 30
0.0
  0
SPLINE
  5
165
330
1F
100
AcDbEntity
  8
Table_Miura_9556-01_2D
100
AcDbSpline
210
0.0
220
0.0
230
1.0
 70
     8
 71
     3
 72
    12
 73
     8
 74
     0
 42
0.0000000001
 43
0.0000000001
 40
0.0
 40
0.0
 40
0.0
 40
0.0
 40
2.849423647238892
 40
5.573258475154479
 40
11.17057419198277
 40
16.6544972940824
 40
22.23406149512204
 40
22.23406149512204
 40
22.23406149512204
 40
22.23406149512204
 10
3312.059446879834
 20
1124.871237751373
 30
0.0
 10
3312.831677647612
 20
1124.318149995421
 30
0.0
 10
3314.384139615624
 20
1123.295284126079
 30
0.0
 10
3317.640573560638
 20
1121.484493526347
 30
0.0
 10
3321.902899296451
 20
1119.714166166208
 30
0.0
 10
3327.311548365779
 20
1118.385334849142
 30
0.0
 10
3330.995789330789
 20
1118.058120987469
 30
0.0
 10
3332.855508912706
 20
1118.036398916807
 30
0.0
  0
SPLINE
  5
166
330
1F
100
AcDbEntity
  8
Table_Miura_9556-01_2D
100
AcDbSpline
210
0.0
220
0.0
230
1.0
 70
     8
 71
     5
 72
    12
 73
     6
 74
     0
 42
0.0000000001
 43
0.0000000001
 40
-1.0
 40
-1.0
 40
-1.0
 40
-1.0
 40
-1.0
 40
-1.0
 40
0.0
 40
0.0
 40
0.0
 40
0.0
 40
0.0
 40
0.0
 10
3332.855508912706
 20
1118.036398916807
 30
0.0
 10
3332.938279136806
 20
1118.035432136291
 30
0.0
 10
3333.021052123835
 20
1118.034701901923
 30
0.0
 10
3333.103829654578
 20
1118.03426153446
 30
0.0
 10
3333.18660551053
 20
1118.034016893274
 30
0.0
 10
3333.269381380438
 20
1118.034012076493
 30
0.0
  0
SPLINE
  5
167
330
1F
100
AcDbEntity
  8
Table_Miura_9556-01_2D
100
AcDbSpline
210
0.0
220
0.0
230
1.0
 70
     8
 71
     3
 72
    12
 73
     8
 74
     0
 42
0.0000000001
 43
0.0000000001
 40
0.0
 40
0.0
 40
0.0
 40
0.0
 40
2.782398956976484
 40
5.60255636646087
 40
11.31396921066574
 40
16.96595331393149
 40
22.64829073387322
 40
22.64829073387322
 40
22.64829073387322
 40
22.64829073387322
 10
3333.269381380438
 20
1118.034012076493
 30
0.0
 10
3334.196853546893
 20
1118.033958106296
 30
0.0
 10
3336.06433545604
 20
1118.106599892447
 30
0.0
 10
3339.813226924065
 20
1118.542317172518
 30
0.0
 10
3344.427401625656
 20
1119.638566338236
 30
0.0
 10
3349.69862232211
 20
1121.804987055845
 30
0.0
 10
3352.939407947453
 20
1123.768896277347
 30
0.0
 10
3354.479676307143
 20
1124.871295855351
 30
0.0
  0
SPLINE
  5
168
330
1F
100
AcDbEntity
  8
Table_Miura_9556-01_2D
100
AcDbSpline
210
0.0
220
0.0
230
1.0
 70
     8
 71
     3
 72
    16
 73
    12
 74
     0
 42
0.0000000001
 43
0.0000000001
 40
0.0
 40
0.0
 40
0.0
 40
0.0
 40
0.1449268675943032
 40
0.2673386247060249
 40
0.5163843678365243
 40
0.7646474073394522
 40
0.9969847930951103
 40
1.194773719318494
 40
1.376962800151374
 40
1.556234553971886
 40
1.789638013214852
 40
1.789638013214852
 40
1.789638013214852
 40
1.789638013214852
 10
3354.479676307143
 20
1124.871295855351
 30
0.0
 10
3354.519051067667
 20
1124.899387565621
 30
0.0
 10
3354.591161791671
 20
1124.951826107164
 30
0.0
 10
3354.721733338162
 20
1125.064247499329
 30
0.0
 10
3354.8601232768
 20
1125.218600859918
 30
0.0
 10
3354.989983524346
 20
1125.425360894937
 30
0.0
 10
3355.072122957983
 20
1125.637409282667
 30
0.0
 10
3355.099107574357
 20
1125.841494097837
 30
0.0
 10
3355.069738766381
 20
1126.027814594468
 30
0.0
 10
3354.981204216871
 20
1126.207377841176
 30
0.0
 10
3354.89143845178
 20
1126.312510306783
 30
0.0
 10
3354.840410930383
 20
1126.371217154049
 30
0.0
  0
SPLINE
  5
169
330
1F
100
AcDbEntity
  8
Table_Miura_9556-01_2D
100
AcDbSpline
210
0.0
220
0.0
230
1.0
 70
    24
 71
     2
 72
     6
 73
     3
 74
     0
 42
0.0000000001
 43
0.0000000001
 40
0.0
 40
0.0
 40
0.0
 40
0.5244495011186676
 40
0.5244495011186676
 40
0.5244495011186676
 10
3354.840410930383
 20
1126.371217154049
 30
0.0
 10
3354.668662564718
 20
1126.569535834368
 30
0.0
 10
3354.496914199053
 20
1126.767854514688
 30
0.0
  0
SPLINE
  5
16A
330
1F
100
AcDbEntity
  8
Table_Miura_9556-01_2D
100
AcDbSpline
210
0.0
220
0.0
230
1.0
 70
     8
 71
     3
 72
    12
 73
     8
 74
     0
 42
0.0000000001
 43
0.0000000001
 40
0.0
 40
0.0
 40
0.0
 40
0.0
 40
0.089002379783791
 40
0.1797960093880787
 40
0.4111935266141908
 40
0.6556287843907624
 40
0.8529822444616082
 40
0.8529822444616082
 40
0.8529822444616082
 40
0.8529822444616082
 10
3354.496914199053
 20
1126.767854514688
 30
0.0
 10
3354.477602237219
 20
1126.790582319541
 30
0.0
 10
3354.436808559964
 20
1126.83471037953
 30
0.0
 10
3354.328131918765
 20
1126.918962897032
 30
0.0
 10
3354.161610736731
 20
1127.009220075642
 30
0.0
 10
3353.952103755208
 20
1127.091020424646
 30
0.0
 10
3353.806584393302
 20
1127.11886927313
 30
0.0
 10
3353.74069414433
 20
1127.1206530044
 30
0.0
  0
SPLINE
  5
16B
330
1F
100
AcDbEntity
  8
Table_Miura_9556-01_2D
100
AcDbSpline
210
0.0
220
0.0
230
1.0
 70
    12
 71
     3
 72
    12
 73
     8
 74
     0
 42
0.0000000001
 43
0.0000000001
 40
-0.5262507170806857
 40
-0.5262507170806857
 40
-0.5262507170806857
 40
-0.5262507170806857
 40
-0.5145170103963779
 40
-0.5145170103963779
 40
-0.2542829628112115
 40
-0.2542829628112115
 40
-0.0317448945959232
 40
-0.0317448945959232
 40
-0.0317448945959232
 40
-0.0317448945959232
 10
2938.374665793893
 20
1583.401802490107
 30
0.0
 41
1.0
 10
2938.372189115923
 20
1583.406239228072
 30
0.0
 41
1.0
 10
2938.369697778502
 20
1583.410608164613
 30
0.0
 41
1.0
 10
2938.311638921164
 20
1583.510256155707
 30
0.0
 41
1.0
 10
2938.252524852343
 20
1583.570384615903
 30
0.0
 41
1.0
 10
2938.14896861143
 20
1583.638203310428
 30
0.0
 41
1.0
 10
2938.103367391248
 20
1583.652679127056
 30
0.0
 41
1.0
 10
2938.059846457944
 20
1583.655807783504
 30
0.0
 41
1.0
  0
SPLINE
  5
16C
330
1F
100
AcDbEntity
  8
Table_Miura_9556-01_2D
100
AcDbSpline
210
0.0
220
0.0
230
1.0
 70
    12
 71
     3
 72
    12
 73
     8
 74
     0
 42
0.0000000001
 43
0.0000000001
 40
-0.5262507170806857
 40
-0.5262507170806857
 40
-0.5262507170806857
 40
-0.5262507170806857
 40
-0.5145170103963779
 40
-0.5145170103963779
 40
-0.2542829628112115
 40
-0.2542829628112115
 40
-0.0317448945959232
 40
-0.0317448945959232
 40
-0.0317448945959232
 40
-0.0317448945959232
 10
2980.629084141511
 20
1583.401802490107
 30
0.0
 41
1.0
 10
2980.631560819481
 20
1583.406239228072
 30
0.0
 41
1.0
 10
2980.634052156902
 20
1583.410608164613
 30
0.0
 41
1.0
 10
2980.69211101424
 20
1583.510256155707
 30
0.0
 41
1.0
 10
2980.75122508306
 20
1583.570384615903
 30
0.0
 41
1.0
 10
2980.854781323974
 20
1583.638203310428
 30
0.0
 41
1.0
 10
2980.900382544156
 20
1583.652679127056
 30
0.0
 41
1.0
 10
2980.94390347746
 20
1583.655807783504
 30
0.0
 41
1.0
  0
ENDSEC
  0
SECTION
  2
OBJECTS
  0
DICTIONARY
  5
C
330
0
100
AcDbDictionary
281
     1
  3
ACAD_GROUP
350
D
  3
ACAD_LAYOUT
350
1A
  3
ACAD_MLEADERSTYLE
350
16E
  3
ACAD_MLINESTYLE
350
17
  3
ACAD_PLOTSETTINGS
350
19
  3
ACAD_PLOTSTYLENAME
350
E
  3
ACAD_TABLESTYLE
350
16D
  3
ACAD_VISUALSTYLE
350
2A
  0
DICTIONARY
  5
D
102
{ACAD_REACTORS
330
C
102
}
330
C
100
AcDbDictionary
281
     1
  0
DICTIONARY
  5
1A
102
{ACAD_REACTORS
330
C
102
}
330
C
100
AcDbDictionary
281
     1
  3
Layout1
350
1E
  3
Layout2
350
26
  3
Model
350
22
  0
DICTIONARY
  5
16E
102
{ACAD_REACTORS
330
C
102
}
330
C
100
AcDbDictionary
281
     1
  0
DICTIONARY
  5
17
102
{ACAD_REACTORS
330
C
102
}
330
C
100
AcDbDictionary
281
     1
  3
Standard
350
18
  0
DICTIONARY
  5
19
102
{ACAD_REACTORS
330
C
102
}
330
C
100
AcDbDictionary
281
     1
  0
ACDBDICTIONARYWDFLT
  5
E
102
{ACAD_REACTORS
330
C
102
}
330
C
100
AcDbDictionary
281
     1
  3
Normal
350
F
100
AcDbDictionaryWithDefault
340
F
  0
DICTIONARY
  5
16D
102
{ACAD_REACTORS
330
C
102
}
330
C
100
AcDbDictionary
281
     1
  0
DICTIONARY
  5
2A
102
{ACAD_REACTORS
330
C
102
}
330
C
100
AcDbDictionary
281
     1
  3
2dWireframe
350
2F
  3
3D Hidden
350
31
  3
3dWireframe
350
30
  3
Basic
350
32
  3
Brighten
350
36
  3
ColorChange
350
3A
  3
Conceptual
350
34
  3
Dim
350
35
  3
Facepattern
350
39
  3
Flat
350
2B
  3
FlatWithEdges
350
2C
  3
Gouraud
350
2D
  3
GouraudWithEdges
350
2E
  3
Linepattern
350
38
  3
Realistic
350
33
  3
Thicken
350
37
  0
LAYOUT
  5
1E
102
{ACAD_REACTORS
330
1A
102
}
330
1A
100
AcDbPlotSettings
  1

  2
none_device
  4

  6

 40
0.0
 41
0.0
 42
0.0
 43
0.0
 44
0.0
 45
0.0
 46
0.0
 47
0.0
 48
0.0
 49
0.0
140
0.0
141
0.0
142
1.0
143
1.0
 70
   688
 72
     0
 73
     0
 74
     5
  7

 75
    16
 76
     0
 77
     2
 78
   300
147
1.0
148
0.0
149
0.0
100
AcDbLayout
  1
Layout1
 70
     1
 71
     1
 10
0.0
 20
0.0
 11
12.0
 21
9.0
 12
0.0
 22
0.0
 32
0.0
 14
1.000000000000000E+20
 24
1.000000000000000E+20
 34
1.000000000000000E+20
 15
-1.000000000000000E+20
 25
-1.000000000000000E+20
 35
-1.000000000000000E+20
146
0.0
 13
0.0
 23
0.0
 33
0.0
 16
1.0
 26
0.0
 36
0.0
 17
0.0
 27
1.0
 37
0.0
 76
     0
330
1B
  0
LAYOUT
  5
26
102
{ACAD_REACTORS
330
1A
102
}
330
1A
100
AcDbPlotSettings
  1

  2
none_device
  4

  6

 40
0.0
 41
0.0
 42
0.0
 43
0.0
 44
0.0
 45
0.0
 46
0.0
 47
0.0
 48
0.0
 49
0.0
140
0.0
141
0.0
142
1.0
143
1.0
 70
   688
 72
     0
 73
     0
 74
     5
  7

 75
    16
 76
     0
 77
     2
 78
   300
147
1.0
148
0.0
149
0.0
100
AcDbLayout
  1
Layout2
 70
     1
 71
     2
 10
0.0
 20
0.0
 11
0.0
 21
0.0
 12
0.0
 22
0.0
 32
0.0
 14
0.0
 24
0.0
 34
0.0
 15
0.0
 25
0.0
 35
0.0
146
0.0
 13
0.0
 23
0.0
 33
0.0
 16
1.0
 26
0.0
 36
0.0
 17
0.0
 27
1.0
 37
0.0
 76
     0
330
23
  0
LAYOUT
  5
22
102
{ACAD_REACTORS
330
1A
102
}
330
1A
100
AcDbPlotSettings
  1

  2
none_device
  4

  6

 40
0.0
 41
0.0
 42
0.0
 43
0.0
 44
0.0
 45
0.0
 46
0.0
 47
0.0
 48
0.0
 49
0.0
140
0.0
141
0.0
142
1.0
143
1.0
 70
  1712
 72
     0
 73
     0
 74
     0
  7

 75
     0
 76
     0
 77
     2
 78
   300
147
1.0
148
0.0
149
0.0
100
AcDbLayout
  1
Model
 70
     1
 71
     0
 10
0.0
 20
0.0
 11
12.0
 21
9.0
 12
0.0
 22
0.0
 32
0.0
 14
-550.0
 24
-550.0
 34
0.0
 15
3509.502324986271
 25
1848.033841070079
 35
0.0
146
0.0
 13
0.0
 23
0.0
 33
0.0
 16
1.0
 26
0.0
 36
0.0
 17
0.0
 27
1.0
 37
0.0
 76
     0
330
1F
331
29
  0
MLINESTYLE
  5
18
102
{ACAD_REACTORS
330
17
102
}
330
17
100
AcDbMlineStyle
  2
Standard
 70
     0
  3

 62
   256
 51
90.0
 52
90.0
 71
     2
 49
0.5
 62
   256
  6
BYLAYER
 49
-0.5
 62
   256
  6
BYLAYER
  0
ACDBPLACEHOLDER
  5
F
102
{ACAD_REACTORS
330
E
102
}
330
E
  0
VISUALSTYLE
  5
2F
102
{ACAD_REACTORS
330
2A
102
}
330
2A
100
AcDbVisualStyle
  2
2dWireframe
 70
     4
 71
     0
 72
     2
 73
     0
 90
        0
 40
-0.6
 41
-30.0
 62
     5
 63
     7
421
 16777215
 74
     1
 91
        4
 64
     7
 65
   257
 75
     1
175
     1
 42
1.0
 92
        0
 66
   257
 43
1.0
 76
     1
 77
     6
 78
     2
 67
     7
 79
     5
170
     0
171
     0
290
     0
174
     0
 93
        1
 44
0.0
173
     0
291
     0
 45
0.0
1001
ACAD
1000
AcDbSavedByObjectVersion
1070
     0
  0
VISUALSTYLE
  5
31
102
{ACAD_REACTORS
330
2A
102
}
330
2A
100
AcDbVisualStyle
  2
3D Hidden
 70
     6
 71
     1
 72
     2
 73
     2
 90
        0
 40
-0.6
 41
-30.0
 62
     5
 63
     7
421
 16777215
 74
     2
 91
        2
 64
     7
 65
   257
 75
     2
175
     1
 42
40.0
 92
        0
 66
   257
 43
1.0
 76
     1
 77
     6
 78
     2
 67
     7
 79
     3
170
     0
171
     0
290
     0
174
     0
 93
        1
 44
0.0
173
     0
291
     0
 45
0.0
1001
ACAD
1000
AcDbSavedByObjectVersion
1070
     0
  0
VISUALSTYLE
  5
30
102
{ACAD_REACTORS
330
2A
102
}
330
2A
100
AcDbVisualStyle
  2
3dWireframe
 70
     5
 71
     0
 72
     2
 73
     0
 90
        0
 40
-0.6
 41
-30.0
 62
     5
 63
     7
421
 16777215
 74
     1
 91
        4
 64
     7
 65
   257
 75
     1
175
     1
 42
1.0
 92
        0
 66
   257
 43
1.0
 76
     1
 77
     6
 78
     2
 67
     7
 79
     5
170
     0
171
     0
290
     0
174
     0
 93
        1
 44
0.0
173
     0
291
     0
 45
0.0
1001
ACAD
1000
AcDbSavedByObjectVersion
1070
     0
  0
VISUALSTYLE
  5
32
102
{ACAD_REACTORS
330
2A
102
}
330
2A
100
AcDbVisualStyle
  2
Basic
 70
     7
 71
     1
 72
     0
 73
     1
 90
        0
 40
-0.6
 41
-30.0
 62
     5
 63
     7
421
 16777215
 74
     0
 91
        4
 64
     7
 65
   257
 75
     1
175
     1
 42
1.0
 92
        8
 66
     7
 43
1.0
 76
     1
 77
     6
 78
     2
 67
     7
 79
     5
170
     0
171
     0
290
     0
174
     0
 93
        1
 44
0.0
173
     0
291
     1
 45
0.0
1001
ACAD
1000
AcDbSavedByObjectVersion
1070
     0
  0
VISUALSTYLE
  5
36
102
{ACAD_REACTORS
330
2A
102
}
330
2A
100
AcDbVisualStyle
  2
Brighten
 70
    12
 71
     2
 72
     2
 73
     0
 90
        0
 40
-0.6
 41
-30.0
 62
     5
 63
     7
421
 16777215
 74
     1
 91
        4
 64
     7
 65
   257
 75
     1
175
     1
 42
1.0
 92
        8
 66
     7
 43
1.0
 76
     1
 77
     6
 78
     2
 67
     7
 79
     5
170
     0
171
     0
290
     0
174
     0
 93
        1
 44
50.0
173
     0
291
     1
 45
0.0
1001
ACAD
1000
AcDbSavedByObjectVersion
1070
     0
  0
VISUALSTYLE
  5
3A
102
{ACAD_REACTORS
330
2A
102
}
330
2A
100
AcDbVisualStyle
  2
ColorChange
 70
    16
 71
     2
 72
     2
 73
     3
 90
        0
 40
-0.6
 41
-30.0
 62
     5
 63
     8
421
  8421504
 74
     1
 91
        4
 64
     7
 65
   257
 75
     1
175
     1
 42
1.0
 92
        8
 66
     8
424
  8421504
 43
1.0
 76
     1
 77
     6
 78
     2
 67
     7
 79
     5
170
     0
171
     0
290
     0
174
     0
 93
        1
 44
0.0
173
     0
291
     1
 45
0.0
1001
ACAD
1000
AcDbSavedByObjectVersion
1070
     0
  0
VISUALSTYLE
  5
34
102
{ACAD_REACTORS
330
2A
102
}
330
2A
100
AcDbVisualStyle
  2
Conceptual
 70
     9
 71
     3
 72
     2
 73
     0
 90
        0
 40
-0.6
 41
-30.0
 62
     5
 63
     7
421
 16777215
 74
     2
 91
        2
 64
     7
 65
   257
 75
     1
175
     1
 42
40.0
 92
        8
 66
     7
 43
1.0
 76
     1
 77
     6
 78
     2
 67
     7
 79
     3
170
     0
171
     0
290
     0
174
     0
 93
        1
 44
0.0
173
     0
291
     0
 45
0.0
1001
ACAD
1000
AcDbSavedByObjectVersion
1070
     0
  0
VISUALSTYLE
  5
35
102
{ACAD_REACTORS
330
2A
102
}
330
2A
100
AcDbVisualStyle
  2
Dim
 70
    11
 71
     2
 72
     2
 73
     0
 90
        0
 40
-0.6
 41
-30.0
 62
     5
 63
     7
421
 16777215
 74
     1
 91
        4
 64
     7
 65
   257
 75
     1
175
     1
 42
1.0
 92
        8
 66
     7
 43
1.0
 76
     1
 77
     6
 78
     2
 67
     7
 79
     5
170
     0
171
     0
290
     0
174
     0
 93
        1
 44
-50.0
173
     0
291
     1
 45
0.0
1001
ACAD
1000
AcDbSavedByObjectVersion
1070
     0
  0
VISUALSTYLE
  5
39
102
{ACAD_REACTORS
330
2A
102
}
330
2A
100
AcDbVisualStyle
  2
Facepattern
 70
    15
 71
     2
 72
     2
 73
     0
 90
        0
 40
-0.6
 41
-30.0
 62
     5
 63
     7
421
 16777215
 74
     1
 91
        4
 64
     7
 65
   257
 75
     1
175
     1
 42
1.0
 92
        8
 66
     7
 43
1.0
 76
     1
 77
     6
 78
     2
 67
     7
 79
     5
170
     0
171
     0
290
     0
174
     0
 93
        1
 44
0.0
173
     0
291
     1
 45
0.0
1001
ACAD
1000
AcDbSavedByObjectVersion
1070
     0
  0
VISUALSTYLE
  5
2B
102
{ACAD_REACTORS
330
2A
102
}
330
2A
100
AcDbVisualStyle
  2
Flat
 70
     0
 71
     2
 72
     1
 73
     1
 90
        2
 40
-0.6
 41
30.0
 62
     5
 63
     7
421
 16777215
 74
     0
 91
        4
 64
     7
 65
   257
 75
     1
175
     1
 42
1.0
 92
        8
 66
     7
 43
1.0
 76
     1
 77
     6
 78
     2
 67
     7
 79
     5
170
     0
171
     0
290
     0
174
     0
 93
       13
 44
0.0
173
     0
291
     1
 45
0.0
1001
ACAD
1000
AcDbSavedByObjectVersion
1070
     0
  0
VISUALSTYLE
  5
2C
102
{ACAD_REACTORS
330
2A
102
}
330
2A
100
AcDbVisualStyle
  2
FlatWithEdges
 70
     1
 71
     2
 72
     1
 73
     1
 90
        2
 40
-0.6
 41
30.0
 62
     5
 63
     7
421
 16777215
 74
     1
 91
        4
 64
     7
 65
   257
 75
     1
175
     1
 42
1.0
 92
        0
 66
   257
 43
1.0
 76
     1
 77
     6
 78
     2
 67
     7
 79
     5
170
     0
171
     0
290
     0
174
     0
 93
       13
 44
0.0
173
     0
291
     1
 45
0.0
1001
ACAD
1000
AcDbSavedByObjectVersion
1070
     0
  0
VISUALSTYLE
  5
2D
102
{ACAD_REACTORS
330
2A
102
}
330
2A
100
AcDbVisualStyle
  2
Gouraud
 70
     2
 71
     2
 72
     2
 73
     1
 90
        2
 40
-0.6
 41
30.0
 62
     5
 63
     7
421
 16777215
 74
     0
 91
        4
 64
     7
 65
   257
 75
     1
175
     1
 42
1.0
 92
        0
 66
     7
 43
1.0
 76
     1
 77
     6
 78
     2
 67
     7
 79
     5
170
     0
171
     0
290
     0
174
     0
 93
       13
 44
0.0
173
     0
291
     1
 45
0.0
1001
ACAD
1000
AcDbSavedByObjectVersion
1070
     0
  0
VISUALSTYLE
  5
2E
102
{ACAD_REACTORS
330
2A
102
}
330
2A
100
AcDbVisualStyle
  2
GouraudWithEdges
 70
     3
 71
     2
 72
     2
 73
     1
 90
        2
 40
-0.6
 41
30.0
 62
     5
 63
     7
421
 16777215
 74
     1
 91
        4
 64
     7
 65
   257
 75
     1
175
     1
 42
1.0
 92
        0
 66
   257
 43
1.0
 76
     1
 77
     6
 78
     2
 67
     7
 79
     5
170
     0
171
     0
290
     0
174
     0
 93
       13
 44
0.0
173
     0
291
     1
 45
0.0
1001
ACAD
1000
AcDbSavedByObjectVersion
1070
     0
  0
VISUALSTYLE
  5
38
102
{ACAD_REACTORS
330
2A
102
}
330
2A
100
AcDbVisualStyle
  2
Linepattern
 70
    14
 71
     2
 72
     2
 73
     0
 90
        0
 40
-0.6
 41
-30.0
 62
     5
 63
     7
421
 16777215
 74
     1
 91
        4
 64
     7
 65
   257
 75
     7
175
     7
 42
1.0
 92
        8
 66
     7
 43
1.0
 76
     1
 77
     6
 78
     2
 67
     7
 79
     5
170
     0
171
     0
290
     0
174
     0
 93
        1
 44
0.0
173
     0
291
     1
 45
0.0
1001
ACAD
1000
AcDbSavedByObjectVersion
1070
     0
  0
VISUALSTYLE
  5
33
102
{ACAD_REACTORS
330
2A
102
}
330
2A
100
AcDbVisualStyle
  2
Realistic
 70
     8
 71
     2
 72
     2
 73
     0
 90
        0
 40
-0.6
 41
-30.0
 62
     5
 63
     7
421
 16777215
 74
     1
 91
        0
 64
     7
 65
   257
 75
     1
175
     1
 42
1.0
 92
        8
 66
     8
424
  7895160
 43
1.0
 76
     1
 77
     6
 78
     2
 67
     7
 79
     5
170
     0
171
     0
290
     0
174
     0
 93
       13
 44
0.0
173
     0
291
     0
 45
0.0
1001
ACAD
1000
AcDbSavedByObjectVersion
1070
     0
  0
VISUALSTYLE
  5
37
102
{ACAD_REACTORS
330
2A
102
}
330
2A
100
AcDbVisualStyle
  2
Thicken
 70
    13
 71
     2
 72
     2
 73
     0
 90
        0
 40
-0.6
 41
-30.0
 62
     5
 63
     7
421
 16777215
 74
     1
 91
        4
 64
     7
 65
   257
 75
     1
175
     1
 42
1.0
 92
       12
 66
     7
 43
1.0
 76
     1
 77
     6
 78
     2
 67
     7
 79
     5
170
     0
171
     0
290
     0
174
     0
 93
        1
 44
0.0
173
     0
291
     1
 45
0.0
1001
ACAD
1000
AcDbSavedByObjectVersion
1070
     0
  0
ENDSEC
  0
EOF
